Is it just me .tab

Canzone: IS IT JUST ME?
Gruppo: THE DARKNESS
Album: ONE WAY TICKET TO HELL... AND BACK

sarÓ il nuovo singolo dei the darkness!!!

NOTE: Use capo on 1st fret.

Intro
e|
B|
G|
D|-2-2---2-2---2-2---2-2---2-2
A|-2-2---2-2---2-2---2-2---2-2
E|-0-0-4-0-0-5-0-0-4-0-0-5-0-0-4-0
Verse e|
B|
G|
D|-2-2---2-2---2-2---2-2---2-2
A|-2-2---2-2---2-2---2-2---2-2
E|-0-0-4-0-0-5-0-0-4-0-0-5-0-0-4-0
e|
B|-3-3---3-3---3-3---3-3---3-3
G|-2-2---2-2---2-2---2-2---2-2
D|-0-0-4-0-0-5-0-0-4-0-0-5-0-0-4-0--2-2---2-2---2-2---2-2---2-2
A|
E|
Bridge e|
B|
G|
D|--4-4-2-4-4-2-4-2--6-6-4-6-6-4-6-4--7v7v7v7v7v7v7v7v7v7v7v7v7v7v7v--| A|--4-4-2-4-4-2-4-2--6-6-4-6-6-4-6-4
E|
Chorus e|
B|
G|
D|--4-4/6-6---2-2--2-2---4-4/6-6---2---2---2
A|--2-2/4-4---0-0--2-2---2-2/4-4---0---0---0
E|
e|
B|
G|
D|--4-4/6-6---2-2--2-2---0-0-4-0-0-5-0-0-4-0-0-5-0-0-4-0--2-2-2-2-2-2---| A|--2-2/4-4---0-0--2-2
E|
INTRO 1x VERSE BRIDGE Chorus e|
B|
G|
D|--4-4/6-6---2-2--2-2---4-4/6-6---2---2---2
A|--2-2/4-4---0-0--2-2---2-2/4-4---0---0---0
E|
e|
B|
G|
D|--4-4/6-6---2-2--2-2
A|--2-2/4-4---0-0--2-2---4-4-4--6-6-6--7-7--2-2-2--4-4-4--5-5-5-5-5-5--| E|
Solo e|
B|
G|
D|--6-6-6-6-6-6-6-6-6-6-6-6-6-6-6---2-2-2-2-2-2-2
A|--4-4-4-4-4-4-4-4-4-4-4-4-4-4-4---0-0-0-0-0-0-0--4-4-4-4-4-4-4
E|
e|
B|-3-3---3-3---3-3---3-3---3-3
G|-2-2---2-2---2-2---2-2---2-2
D|-0-0-4-0-0-5-0-0-4-0-0-5-0-0-4-0--2-2---2-2---2-2---2-2---2-2
A|
E|
BRIDGE Chorus e|
B|
G|
D|--4-4/6-6---2-2--2-2---4-4/6-6---2---2---2
A|--2-2/4-4---0-0--2-2---2-2/4-4---0---0---0
E|
e|
B|
G|
D|--4-4/6-6---2-2--2-2---0-0-4-0-0-5-0-0-4-0-0
A|--2-2/4-4---0-0--2-2
E|
THE END! e|
B|
G|--2----2
D|--2----2
A|--0----0
E|---4p0--4p0--0--| presa da Ultimateguitar.com Buona suonata a tutti!