Hypnotized.tab

System Of A Down
Titolo:	Hypnotized

Intro:
|
|-1-1-3-3-3-3-3-3-4-4-3-3-1-1-0-0- |--0-0-0-0-0-0-0-0-0-0-0-0-0-0-0-- |
|
|
|
|-8-8-7-7-10-10-8-8-12-12-10-10-13-13-12-12-- |--0-0-0-0--0--0-0-0--0--0--0--0--0--0--0--0- |
|
|
|
|-15-15-13-13-12-12-10-10-13-13-12-12-10-10-8-8-11-11-10-10-8-8-7-7-- |---0--0--0--0--0--0--0--0--0--0--0--0--0--0-0-0--0--0--0--0-0-0-0-0- |
|
|
Verso: |
|
|
|-5-5-5-5-0-1-1
|-5-5-5-5-0-1-1
|-5-5-5-5-0-1-1
|
|-15-15-13-13-12-12-10-10-13-13-12-12-10-10-8-8-11-11-10-10-8-8-7-7-- |---0--0--0--0--0--0--0--0--0--0--0--0--0--0-0-0--0--0--0--0-0-0-0-0- |
|
|
|
|
|
|-5-5-5-5-0-1-1----8x |-5-5-5-5-0-1-1---- |-5-5-5-5-0-1-1---- |
|-15-15-13-13-12-12-10-10-13-13-12-12-10-10-8-8-11-11-10-10-8-8-7-7-- |---0--0--0--0--0--0--0--0--0--0--0--0--0--0-0-0--0--0--0--0-0-0-0-0- |
|
|
|
|
|
|-5-5-5-5-0-1-1
|-5-5-5-5-0-1-1
|-5-5-5-5-0-1-1
rit |
|
|
|-5-5-5-5-8-8-8-8-8-8-8-8-10-10-10-10-8-8-8-8-7-7-7-7- |-5-5-5-5-6-6-6-6-6-6-6-6-8--8--8--8--8-8-8-8-5-5-5-5- |-5-5-5-5
Bridge: |
|
|
|-5--00--3--5--00--3--5--00--3--5--00--3
|-5--00--3--5--00--3--5--00--3--5--00--3
|-5--00--3--5--00--3--5--00--3--5--00--3
pm...................................... |
|-1-1-3-3-3-3-3-3-4-4-3-3-1-1-0-0- |--0-0-0-0-0-0-0-0-0-0-0-0-0-0-0-- |
|
|
|
|----8~--10
|
|
|
|
|
|
|
|-5--00--3--5--00--3----5--00--3--5--00--3
|-5--00--3--5--00--3----5--00--3--5--00--3
|-5--00--3--5--00--3----5--00--3--5--00--3
pm..................................... |
|-8-8-7-7-10-10-8-8-12-12-10-10-13-13-12-12-- |--0-0-0-0--0--0-0-0--0--0--0--0--0--0--0--0- |
|
|
rit |
|
|
|-5-5-5-5-8-8-8-8-8-8-8-8-10-10-10-10-8-8-8-8-7-7-7-7- |-5-5-5-5-6-6-6-6-6-6-6-6-8--8--8--8--8-8-8-8-5-5-5-5- |-5-5-5-5
|
|
|
|-5--00--3--5--00--3--5--00--3--5--00--3--- |-5--00--3--5--00--3--5--00--3--5--00--3--- |-5--00--3--5--00--3--5--00--3--5--00--3--- pm....................................... |
|
|
|-5-5-5-5---8-8-8-8----8-8-8-8---10-10-10-10---8~
|-5-5-5-5---6-6-6-6----6-6-6-6---8--8--8--8----8~
|-5-5-5-5
fine|
|-1-1-3-3-3-3-3-3-4-4-3-3-1-1-3p1-0~ |--0-0-0-0-0-0-0-0-0-0-0-0-0
|
|