Fragile.tab

Fragile - Sting

E |
B |---12-10-12-|--|---12-10-12-|-12-10-12-12-10-|---12-10-12-|---12-10-12-| G |-9
D |
A |
E |
E
B -12-10-10-12-|--|-12
G
D
A
E
E ---17
B
G 11
D
A
E
E
B
G
D
A ----10
E -19
E -3-|
B ---|
G ---|
D ---|-9-5-7---7---5---6-13-13---|-7-9
A ---|
E ---|
E
B
G
D ---9
A 14
E
E ----|
B ----|
G ----|
D -17-|
A ----|-14-10-12----10---10-9---9-|----12---10
E ----|
E
B
G
D ---10----9-9---12-12-|---9-5-7---5--5-9--9---|-9-5-7----5-6-13---13- A 14
E
E |-2
B |
G |
D |
A |---12
E |
E
B
G
D
A 10-12-21
E
E 0-3-3---7-7--7-|
B --0---0-3--3---|-3---1----0-0---3--3-|---0
G
D
A
E
E --2-0-0
B
G
D ----5-6-4-4---|---|---14
A -12
E
E -0---0---2-|-3
B
G
D -5-5---7---|---5---7---7-5-7
A
E
E 3-2---|-3
B 0
G
D ----7-|----5---7---7--5-5---7---|---5---7-7-5
A
E
E -8-10-7-3-0-|-2-3-0-2-0-0-|-0---3-5-7-8-10-7-8-5-7-3-5-|
B
G
D
A
E
E
B -12-17----|
G
D
A
E
E
B 12-10-12
G
D
A
E
E ---7-5-7-8-7-8-8-|-8-7-7-7-5-3-3-3-|---7-5-7-8-5-5-|-2-3-2-3-2-3-0-| B
G -9
D
A
E
E -5
B -1---1-0---1-0
G ---9
D
A
E
E -2---0---2-3---|-5
B
G ---2-0-2
D
A
E
E --0-0-2---|-3
B
G 0-0-0---2-|----0
D
A
E
E
B --0
G 0---2---2--0-|-9
D
A
E
E ----|
B -12-|-10-12-12-10-10-12-|---12-10-12-|---12-|-10-12-12-10-12-|--|----| G ----|
D ----|
A ----|
E ----|
www.francopistoni.it