Samba pa ti.tab

Samba Pa Ti - Carlos Santana
www.francopistoni.it

E 
B
G
D
A
E
E |-2-2-2---|---|-7-5
B |
G |
D |
A |
E |
E
B
G 5-4-5---5---|
D
A
E
E -|
B -|-3
G -|---0-4---|
D -|
A -|
E -|
E 12-10-7-5---|-7-5
B
G
D
A
E
E
B ----3-5---|
G 4-5
D
A
E
E ---3-3-3-5-7-7-|-10-|----8-7
B
G -0
D
A
E
E |-8-|----8-7
B |---|-12
G |---|
D |---|
A |---|
E |---|
E -3-5-|---0---0-|
B
G
D
A
E
E 10-10-10-7-10-|----10----7-5
B
G
D
A
E
E 0-|-10-10-7-10-7-10-7-10-10-|----10----7-5-3-2-3-5-|-3---10-|-10-10- B --|
G --|
D --|
A --|
E --|
E 10-10-10-7-|-10-10-7-10-10-10-7-|-10-10-10-7---0-|---5-19-|-18-15-17 B
G
D
A
E
E -12-12-14-|-15-14----14-12----12-10----10-8-7----7
B
G
D
A
E
E ---7
B 10---10-8
G
D
A
E
E |
B |---8-10
G |
D |-7
A |
E |
E
B
G --7-9-7---7-9-7---7-9-7-|---7-9-7---7-9-7---7-9-7---7-9-7---7-|
D 9
A
E
E 0-20-20-20-20-19-19-|-17-17-15-14-12-10-10
B
G
D
A
E
E -12
B ----10-12-|
G
D
A
E
E |-12-5-3-5-3-12-|-10-7-7-5-5-3-3-|
B |
G |
D |
A |
E |
E |-10----10-12-|-12-12-|-10----10-12-|-12-12-|-10----10---|
B |----12
G |
D |
A |
E |
E
B 10-10---|-12-12-12-12-12-12-12-12-12-12-12-|-12-12-12-12-12----|
G
D
A
E