Europa.tab

Europa - Carlos Santana

E 
B
G
D
A
E
E ----|
B 8---|-6-8---6-|-6-6-8-9---9-8-6---|---6
G --8-|
D ----|
A ----|
E ----|
E -10-8-6-|---|---6-8-8-10-8-6---|---|
B
G
D
A
E
E |
B |-6-6-8-9---9-8-9-8----|-8-|-8
G |
D |
A |
E |
E -13-13-11-13-13-11-13-11-|-11-13-13-13-13-13-13-11-8-|-13-11-10-10- B
G
D
A
E
E 11-10-10
B
G
D
A
E
E
B
G -7-8-|
D
A
E
E -6
B ---6-6
G
D
A
E
E
B
G
D -5---|
A ---6-|
E
E ---6-8-6-8-6---|
B -8
G
D
A
E
E -|
B -|-6-6-8
G -|
D -|
A -|
E -|
E 13-13-11-13-11-13-13-|-13-13-11-13-11-13-|-13-13-11-|-13-13-11-13-11 B
G
D
A
E
E -10-10-11-10-10-|-11-11-8-6
B
G
D
A
E
E --6---|
B 8---9-|-9-8---9-8-6-8-6
G
D
A
E
E -11-10-9-|-11-10-11-10-9-11-10-10-10-9-11-10-8-11-10-11-10-9-11- B
G
D
A
E
E 10-8-11-|-11-11-11-10-8-11-10-8
B
G
D
A
E
E -13-|
B ----|
G ----|
D ----|
A ----|
E ----|
E
B 6-6
G ----8-5-8-|-8
D
A
E
E
B 9-8-6---6-8-8
G
D
A
E
E --|
B 6-|-8-6-8-8-6---9-8-8-9-8-|-8-8-6---6-8
G --|
D --|
A --|
E --|
E ----|
B 9-8-|-8-8
G ----|
D ----|
A ----|
E ----|
E 13-13-11-13-11-|-15-18-18-15-18-18-18-15-|----15-15-18-15----15-15-18 B
G
D
A
E
E -15----15-15-18-15----15-15-18-15----15-18-15----15-|-18-18-18-18-15 B ----18
G
D
A
E
E ----18-18-18-|----18-18----18-18----18-18----18-18-18-18-18-|
B -18
G
D
A
E
E -18
B ----18-18----18-18----18-18----18-18----18-18----18-18----18-18----| G
D
A
E
E
B -18-18
G
D
A
E
E |
B |-6-8---8-6-8---8-6-8
G |
D |
A |
E |
E
B
G
D -5
A ---8-6---6-8---|
E
E 15-15-18-18-|-20-20-20-20-20-20-20-|-20-20-20-20-20-20-20-20-11-|-11 B
G
D
A
E
E -11-11-11-8-6
B
G
D
A
E
E -8----6
B ---11
G
D
A
E
E --8-10-11-13-|-13-18
B
G 5
D
A
E
E ---18-18----18----18-18----|-18-18----18-18----18-18-18-18-18----|--- B 18
G
D
A
E
E ----18
B -18----18-18----18-18----18-18----18-18----18-18----18-18----18-18- G
D
A
E
E 18-|
B ---|-18-18----18
G ---|
D ---|
A ---|
E ---|
www.francopistoni.it