Californication (live at slane castle).tab


 
* Band: RED HOT CHILI PEPPERS * * Song: CALIFORNICATION Live at Slane Castle * * Tabber: SALVATORE TRAMBARULO - Naples, Italy * * E-mail: sasy.mail@libero.it *
[INTRO] E|
B|-10-8-10--10-8-10-8
G|
D|
A|
E|
E|
B|-13-10-13
G|
D|
A|
E|
E|
B|--12-13-12-10-12-10-8-10
G|
D|
A|
E|
E|
B|-12-10-12-10-8---10-8---8
G|
D|
A|
E|
E|
B|
G|---5
D|-7
A|
E|
E|
B|
G|---5
D|-7
A|
E|
E|
B|10-8-10-10--13-10-13-13--13--13--13--13----13--13--13--13--13--13--13--13--- G|
D|
A|
E|
E|-12--12--12--12--12--12--12--12--15--15--15--15--15--15--15--15--15- B|--13--13--13--13--13--13--13--13--13--13--13--13--13--13--13--13---- G|---14--14--14--14--14--14--14--14--14--14--14--14--14--14--14--14--- D|
A|
E|
E|
B|-10-8-10--10-13/17-17-15-13-15-13-12-13-10-10---10-8-6/5h6-5-3
G|
D|
A|
E|
E|
B|
G|-7/9
D|
A|
E|
E|-12-12-12-12-12-x-10-x-10-8-x-10-x-8-x-8-x-8-x-7-0-0-12-0-0-10-0-0-8-0-0- B|
G|
D|
A|
E|
E|-7-0-0-5-0-0-0-12-0-0-10-0-0-8-0-0-7-0-0-5-0-0-0-12-0-0-10-0-0-8-0-0- B|
G|
D|
A|
E|
E|-7-0-0-5-0-0-0-15-0-0-12-0-0-15-0-0-12-0-0-15-0-17-17-0-0-17-0-0-17-0-0- B|
G|
D|
A|
E|
E|-17-0-0-17-0-17b-17-17-17-17-17-17-17-17-17-17-15-12-15-17-17-17-17-17-17- B|
G|
D|
A|
E|
E|-17-17-17-17-15-13-12-13-12-13-12-10-12-10-8-10-8
B|
G|
D|
A|
E|
E|-10-8
B|
G|
D|
A|
E|
E|5-7-5-3-5-3-5-3-0-3-5-3-0-3-5-3-5-0-3-5-3---- B|
G|
D|
A|
E|
[VERSE] 6 volte E|
B|
G|
D|---2
A|-0
E|
poi E|
B|
G|
D|---2
A|-3
E|
[PRE-CHORUS] 6 volte E|---0
B|---1
G|---2
D|---2
A|---0
E|
[CHORUS] E|---0
B|---1
G|---0
D|---2
A|---3
E|
[SOLO] e||
B||
G||---9h11-11---11p9--11-9
D||
A||
E||
e|
B|
G|
D|
A|--12--11--9--7--7
E|
e|
B|
G|--11----13--11--11--11p9-11-11
D|
A|
E|
e|
B|--19--17--14-17-14--14-17-14-17-14----15r14-15r14-15r14-15r14-15r14--- G|
D|
A|
E|
e|
B|-10--14--10--9--10--14--10--9--10
G|
D|
A|
E|
e|
B|--7-7-12-10-9-10-10p9--7-7-9-9p7-5--7-5---5--7-9-10-12-14-17-19-17-19/ G|
D|
A|
E|
e|
B|/21--19-17-19-17-19\\----|| G|
D|
A|
E|
BY SALVATORE TRAMBARULO!!