Wish you were here.tab

Wish you were here - Pink Floyd

(Ia Chitarra)

E 
B
G
D
A
E
E 3-3
B 3-3
G 0-0---0---|---0-0-0-0-0
D ----2---2-|-0
A
E
E 3
B 3
G
D ----0-|-2
A --0---|
E
E ----3-3-|-3
B ----3-3-|-3
G ----0-0-|-0
D --0-0-0-|-0---0-0-0-0
A ----2-2-|-2
E 3
E ----|
B ----|---3-3-3-3-3-3
G ----|---0-0-0-0-0-0---0---|---0-0-0-0-0
D --0-|-2
A 0---|
E ----|
E --|
B --|
G --|
D --|---2
A 2-|-0
E --|
E --|-3
B 3-|-3-3-3-3---3
G 0-|-0-0-0-0---0
D 0-|-0-0---0---0---0-0-0-| A --|-2-2
E --|-3
(IIa Chitarra) E
B
G
D
A
E
E -|
B -|
G -|
D -|
A -|
E -|
E
B -3-0
G
D
A
E
E
B
G -0
D
A ---5-2
E
E ----0
B --1
G 0
D
A
E
E
B -3
G -2
D -0
A -0---0
E ---2
E
B ---0
G -0
D
A
E
E
B
G
D ---0
A
E -2
E -0---|
B -1---|
G -0-0-|
D ---2-|---2
A ---3-|-0
E
E
B ----1---|
G --2
D 2
A
E
E
B ----1
G --0
D 2
A
E
E ----2
B --3
G 2
D
A
E
E
B -1-1-1-|
G -2-2-2-|
D -2-2-2-|
A -0-0-0-|---2
E
E
B
G -2
D ---0
A
E
E
B
G
D ---2
A -3
E
E
B
G
D ----2
A --0
E 5
E -3
B -3
G ---0---|---0
D
A
E
E
B ---3-3---3-3
G ---0-0-0-0-0
D -0
A
E
E ---|---3-3-3-3-3-3-3
B ---|---3-3-3-3-3-3-3
G ---|---0-0-0-0-0-0-0
D -0-|-2
A ---|
E ---|
E
B ---3-3
G
D -5
A
E
E
B
G
D
A -3-3
E
E ---2
B -3
G
D
A
E
E |
B |
G |
D |
A |---2
E |-3
E ----2
B --3
G 2
D
A
E
E
B 1-1
G --0-0-0-0-0-|
D --2-2-2---2-|---2
A --3-3-3---3-|-0
E
E ---0-0-|
B -1---1-|
G
D
A
E
E --3
B 3---3
G
D
A
E
E
B
G
D ----0-|-2
A --0---|
E 3
E 3-3-3-3
B 3-3-3-3
G 0-0-0-0
D
A
E
E --3
B 3
G
D
A
E ----3-3
E ---3-3
B -3
G
D
A
E
E
B
G
D 5
A --5
E ----3-3
E --3-3-3-3-3-3-3
B --3-3-3-3-3-3-3
G --0-0-0-0-0-0-0
D 2
A
E
E
B
G
D 2-0---|---2-2
A ----2-|-0
E
E
B
G ----0
D --0
A 2
E
E
B
G
D -5
A ---5-2---5
E
E
B ----3---3
G --0
D 0
A
E
E 3-3-3-3
B 3-3-3-3
G 0-0-0-0
D
A
E
E
B
G
D --2-2
A 0
E
www.francopistoni.it