Money.btab

.::PINK FLOYD::.
MONEY
--->usate questo file SOLO per divertimento,attivitā scolastistiche e ricerche<--
§[btab]§

accordatura standard e-a-d-

riff principale (R.M)
g|--4
d|---4
a|2---2-0-2-- e|
(R.2) g|
d|4~4
a|---4--0-4
e|----2
football team... (R.) g|--9
d|---9
a|7---7---5-7--- di questa parte non ne siamo sicuri ma ci assomiglia ;) e|
(R.4) g|
d|----0
a|0-2---4-3- e|
(R:5) g|
d|2-1-0
a|
e|
(R.6) g|
d|--4-3-2- a|
e|2
(R.7) g|4-2-0
d|
a|
e|
(R.8) g|
d|0---0---0---0---0 a|--2---2---2---2-- e|
I RIFF SONO FINITI QUESTO č L'ORDINE: Riff 1 x16 Riff 2 x1 Riff 1 x10 Riff 2 x1 Riff 1 x10 Riff 3 x4 Riff 1 x4 Riff 2 x1 a|22222222222222 Riff 4 x8 Riff 5 x4 Riff 4 x4 Riff 6 x2 Riff 7 x1 Riff 4 x4 Riff 4 x8 Riff 5 x4 Riff 4 x4 Riff 6 x2 Riff 7 x1 Riff 4 x8 R Riff 5 x4 Riff 4 x4 Riff 6 x2 Riff 7 x1 Riff 1 x10 Riff 2 x1 Riff 8 --->END<-- ...e se non ci fosse la tv chi ci diverebbe cosa pensare?... .::MAMBO::.GABBA GABBA HEY Sono gradite critiche (positive XD scherzo),correzioni al testo e-o agli accordi alla mia posta--->federi.x@tiscali.it C'č DA DIRE CHE QUESTA CANZONE LA INVIO IO MA L'ABBIAMO FATTA IO E L'AMICO TOM (zenzero_85@tiscali.it)

Money - Pink Floyd G -|---4
D -|
A -|-2
E -|
G
D
A --0-2---2|
E 2
G |---4
D |
A |-2
E |
G ----|---4
D --0-|
A 2---|-2
E ----|
G
D
A 0-2-2---|-2
E
G --|
D --|
A --|-0-2-2---|-2-2---2-2---|-0-2-2---|-2
E 2-|
G ----|
D ----|
A 4---|-0-4-4---|
E --2-|
G
D 4
A --2-2---|-0-2-2---|-2
E
G --4
D ----4
A 2
E
G --|---4
D 0-|
A --|-2
E --|
G
D ----0-|-4-4
A 2-2---|
E
G
D
A 0-2-2---|-2
E
G --|
D --|
A --|-0-2-2---|-2
E 2-|
G
D
A 2-2---|-0-2-2---|-2
E ----2-|
G 4
D --4
A ----2-2---|-0-2-2---|
E
G 9-4
D ----2---|-0-2-2---|-2
A
E
G 4
D --4
A ----2-2---|-0-2-2---|-2
E
G |
D |-4-4
A |
E |
G ----|
D ----|
A 2-2-|-2-2-2-2-2-2-2-2-2-2-2-2-|-2---4-3-1-|---4-3-1-|---4-3-1-|---4- E ----|
G ----|
D ----|-0
A 3-1-|---4-3-1-|---4-3-1-|---4-3-1-|---4-2-|
E ----|
G ----|
D 0---|-2-1-0---|---0
A --4-|
E ----|
G
D --4-3-2-|
A
E 2
G --|
D --|---0-0
A 1-|-0
E --|
G
D --0-0
A 0
E
G
D 1-1-0-0
A
E
G
D --0-0
A 0
E
G
D 4-4-3-3-2-2-|
A
E
G
D
A 4-3-1-|-0---4-3-1-|-0---4-3-1-|-0---4-3-1-|-0---4-3-1-|-0---4-3-1-|- E
G
D --0
A 0---4-3-1-|-0---4-3-1-|-0---4-3-1-|-0---4-3-1-|---4-2-|
E
G
D 1-0---|-2-1-0---|-2-1-0---|---0
A ----4-|
E
G --|
D --|
A 3-|
E --|-2-2
G |---4
D |
A |-2
E |
G --|---4
D 0-|
A --|-2
E --|
G
D ----0-|
A 2-2---|-2
E
G |
D |
A |-0-2-2---|
E |
G
D 0
A --2-2-|---2-2---2-2-|---2-2---2-2-|---2-2---2-2-|---2-2---2-2-|---2- E
G
D --0
A 2---2-2-|---2-2---2-2-|---2-2---2-2-|---2-2---2-2-|---2-2---2-2-|--- E
G
D ----0
A 2-2---2-2-|---2-2---2-2-|---2-2---2-2-|---2-2---2-2-|---2-2---2-2-|- E
G
D 0
A --2-2---| E
www.francopistoni.it