Song for bilbao.tab

Song for Bilbao - Pat Metheny

E 
B
G
D
A
E
E 8-8-|-6-8-|
B ----|
G ----|
D ----|
A ----|
E ----|
E ----3---|-5---7---|-8-8-|-6-8-|
B 6-4---4-|---6---8-|
G
D
A
E
E --|-8-8-|-6-8-|
B 8-|
G --|
D --|
A --|
E --|
E -8-|
B ---|-7-6-|-4-6-|---3-3-|---|
G ---|
D ---|
A ---|
E ---|
E -|-5---7---|-8-8-|-6-8-|
B -|---6---8-|
G -|
D -|
A -|
E -|
E -|-10---6-5
B -|----8
G -|
D -|
A -|
E -|
E -|
B -|-7-9-11
G -|
D -|
A -|
E -|
E --|
B --|---8---6
G --|-8---4
D 8-|
A --|
E --|
E
B 6-7-9---|
G
D
A
E
E ----|-4-5-8-|-6-6---|
B 7-8-|
G ----|
D ----|
A ----|
E ----|
E
B 9-2-6-4
G
D
A
E
E ---13-|-11-10-13-12-10-11-|-10
B 18----|
G
D
A
E
E
B 4
G --5-5---|---5
D
A
E
E
B ----3-4-4-6---|-6-8-8-8-|
G 3-5
D
A
E
E
B
G -3-5-6
D
A
E
E ----|
B ----|-8-6-3---7-4-|
G 9-6-|
D ----|
A ----|
E ----|
E -15-11----|----11-15-18-15-11----11-|-15-18-18-15-11----|---9-13-16-13- B
G
D
A
E
E ---4-9-|-13-16----15-14-13-|-11-13-10-11-8-|-11-8-6-6
B 14
G
D
A
E
E
B ----4
G 5-3
D
A
E
E 8---4
B --6
G
D
A
E
E |-6-8-|
B |
G |
D |
A |
E |
E -3---5---|---3---5-|---7---|-8-8-|-6-8-|
B ---4---6-|-4---4---|-6---8-|
G
D
A
E
E -|
B -|-6-6-4---4-4
G -|
D -|
A -|
E -|
www.francopistoni.it