I shot the sherif.btab

I shot the sheriff - Bob marley

G 
D
A
E
G
D 3-5---5
A
E ----3
G
D
A -5-5-5-5-5-5---|
E
G ---|
D -3-|-5
A ---|---5-5-5-5-5-5-5---|
E ---|
G -8-7-|
D
A
E
G |
D |
A |
E |
G ----|
D 5---|-3-3-3---5-|---8
A --5-|
E ----|
G ----|
D --3-|-5
A 5---|---5-5-5-5-5-5---5-|
E ----|
G --7
D ----7
A 6
E
G
D 3
A --5-3---5-|-3-1---|
E
G ----0---|
D 3-0
A
E
G
D
A -5-5---|---5-5-5-5-5-5-5---|
E
G -3---7
D
A ---6
E
G
D -5
A ---5
E
G
D
A
E
G 3-5-|
D ----|
A ----|
E ----|
G
D
A -5-5---|
E
G
D
A -5-5-5-5-5-5---|
E
G
D -5-5---5---5---5-|-5-3-0
A
E
G -|
D -|---3---3-5---|-3-3-3-0
A -|-5---5
E -|
G
D 3-3-3-0
A
E
G
D -5---5
A
E ---3
www.francopistoni.it