Stairway to heaven.tab

Stairway to heaven - Led Zeppelin

E 
B
G
D
A
E
E ---|
B ---|-1---1
G -4-|-2---2
D -5-|
A ---|---0---0-0
E -7-|
E
B 1---1---1
G --2
D
A
E
E --|
B --|-1
G --|---0
D --|
A 2-|-3
E --|
E |
B |-1
G |---2
D |
A |
E |
E 5-7
B
G
D ----6
A
E
E -|---0-5-7
B -|-1
G -|
D -|
A -|
E -|
E
B 1
G 2
D
A 0-0-2-3-|
E
E 3---|
B ----|-3
G ----|
D ----|
A --5-|
E ----|---5
E --|
B --|
G --|---0
D --|-2
A 3-|
E --|
E ---8
B
G -5
D
A
E
E
B 5---5---5
G --5
D
A
E
E -0
B ---1
G
D
A
E
E
B -3-0-0-|-1---8--1-1-1-1---8-|-7-5-7---|-1
G ---0-0-|-2---5--2-2-2-2
D
A
E
E
B --3-3---3-0-0-|-1---8--1-1-1---8-|-7-5-7---|
G
D 0
A
E
E
B
G
D ---2
A -0
E
E ---|
B -1-|
G ---|---2
D ---|
A ---|-0---0
E ---|
E
B ---3-|-1
G -0---|-2-2
D
A
E
E 7-|-5-3-5---|-3-3---3---3-3---0---0-|-2
B 8-|-7-5-7---|-1
G --|-7---7---|-2-2-2
D --|
A --|
E --|
E -0-0-7-|-5-3-5---|
B -1---8-|-7-5-7---|
G -2
D -2-0---|
A
E
E
B
G -0
D ---3
A
E
E
B ---1
G -0
D
A
E
E -0-|-2
B -3-|-3
G ---|---2
D ---|
A ---|
E ---|
E 3---0---0-|-2
B 1-1
G 2-2---2---|---2
D 2-2
A
E
E
B
G
D ---0
A -2
E
E
B
G ---0
D -2
A
E
E
B
G
D
A -2-3-|
E
E -3-3--3-3-3-0---7-|-5-3-5---|-3-3---3---3-3---0---0-|-2
B
G -2-5--2-2-2-2-9---|-7---7---|-2-2-2
D ---2--2-2-2-2-0---|
A ---0
E
E ----|-3-3-3--3-0-0---7-|-5-3-5---|
B 0-0-|-1
G 0-0-|-2-2-5--2-2-2-9---|-7---7---|
D ----|-2---2--2-2-2-0---|
A ----|
E ----|
E
B
G
D
A -2-3-|
E
E
B
G ---2
D -2
A
E
E ---2---2-|-3-0---2
B -3
G
D
A
E
E ---0
B ---1
G -0---0-0-|
D
A
E
E ---0---0---0---|-0---0---0---0---0---0-|---0---0-0---|---0
B ---1-1
G -2
D ---2---2---2---|-3---3---3-3---3---2---|---2---2---2-|---3---3---3-3 A
E
E -0
B
G
D ---3
A
E
E -|
B -|-1-1---1
G -|-2---2---2-2
D -|---3---3---3---3
A -|---3
E -|-1-1
E
B ---3-1-|---1-3-3
G -4---2-|---2-4-4---2---|---2-2
D -5---2-|-2---5-5---3---|---3-3---3---3---5
A -5---0-|-0---5---5---3-|-3
E -3
E
B ---1---1-1
G ---2---2---2---2---4-2-|---2
D -3
A -3---3
E -1---1
E -0-|---0
B -1-|---1---3-3-1-|
G ---|---2-4---4-2-|---2---2
D -2-|-2---5---5-3-|---3---3---3---3
A -0-|---0-5---5-3-|---3
E ---|
E -|
B -|-1---1---1
G -|---2---2-2
D -|-3---3---3
A -|---3-3
E -|---1-1
E -|-0
B -|---1-3-3---1---|---1---1---1-1---1
G -|-2---4---4-2---|-2---2---2---2---2---2-5---2-2
D -|---2-5-5
A -|---0-5-5---3---|---3---3---3---3---3---3
E -|
E 0-0
B 1---1---1---1---1---1---1-|---1-1-1-|-1-1-1-1---|
G 2-0
D 2-2---2---2
A
E
E ---0-0---0-0---0-0---0-|
B ---1-1---1-1---1---1-1-|
G -2---2---0-0---0-0---2-|---2---2---2
D ---2---2-2-2-2---2---3-|-3
A
E
www.francopistoni.it