Welcome to paradise.btab

Welcome to paradise - Green Day
www.francopistoni.it

G 
D ---Chitarra--|
A
E
G ---|
D -1-|
A ---|-4-4
E ---|
G
D -1-1---3-1---|
A
E
G -|
D -|---1-3-1---3-|-1-1-1-1-|-1-1-1-1-|-1-1---3-1---|
A -|-4
E -|
G
D
A
E -2-2-4---|
G -|
D -|-1-1-4-3-1---|
A -|
E -|
G ---|
D ---|
A ---|
E -2-|-2-4---4-2-4-|
G
D
A ---1-|
E -2---|-4-4-4-4---|
G
D
A ----1-|-4
E 4-4---|
G
D 1-1-1-|-1-1-1-1-|-1-1---3-1---|
A
E
G ----|
D --0-|-1-1---3-1---|---1-3-1---3-|-1-1-1-1-|-1-1-1-1-|-1-1---3-1---|- A 1---|
E ----|
G
D
A 4-4-4
E
G |
D |
A |-1-1-3-1
E |
G
D ----1-|-1-1-4-3-1---|
A 4-4---|
E
G
D 4-3-1---|
A
E
G
D -1---1-|
A ---1---|-4-4
E
G
D
A -4-4
E