Classic gas.tab

CLASSIC GAS - TOMMY EMMANUEL

TRASCIZIONE BY CICCIO (PA)

main riff/riff 1
e|
B|-1^0---0-1-0
G|-2---2
D|-2
A|-0
E|
e|
B|-1^0---0-1-0
G|-2---2
D|-2
A|-0
E|
riff 2 e|--8^7-5
B|
G|
D|
A|--0---0---0
E|
e|--8^7-5
B|
G|
D|
A|--0---0---0
E|
riff 2 has a couple of ways he plays the endings, ending 1 is first and most of the rest are ending 2. ending 1 e|
B|---0
G|---0
D|---0
A|
E|-3---3
ending 2 e|
B|
G|
D|
A|
E|-0-2-3
riff 3 e|
B|-5-5
G|-5
D|-5----5
A|-3
E|
e|
B|--9
G|----8
D|
A|
E|
e|
B|----17
G|-16
D|
A|
E|
*first time through it ends here e|--19b--19-17--16b--16
B|
G|
D|
A|
E|
e|-19br-17--20br--17--20-17
B|
G|
D|
A|
E|
e|-17--19--20--19--17--19~
B|
G|
D|
A|
E|
outro riff e|--5--3--1---3--5--5--5-5--3--5
B|--5--3--1---3--5--5--5-5--3--5
G|--5--4--2---4--5--5--5-5--4--5
D|--7--5--3---5--7--7--7-7--5--7---7-7-7
A|--7--5--3---5--7--7--7-7--5--7---7-7-7
E|--5--3--1---3--5--5--5-5--3--5---5-5-5