Entre dos aguas.tab

Entre dos aguas - Paco de Lucia

E 
B
G
D
A
E
E 2-|
B 3-|
G 2-|
D --|
A 2-|
E --|
E 3-3-2-2-2-2-2-|-0
B
G
D
A
E
E 2-0-0
B
G
D
A
E
E
B --0-1-3---|
G 2
D
A
E
E 2-0
B ----3-1-0
G
D
A
E
E
B 0-0-0-|-0
G
D
A
E
E -8-7-5-3-2-0---|---|
B
G
D
A
E
E -2-7-5-3-2-5-|-3-2-0---|-5-3-2-3-5-7-8-|-10-8-7-8-12-10-|-8-7-8-7-6- B
G
D
A
E
E 7-8-7-|-7-7-7-|
B
G
D
A
E
E ---|---|
B ---|---|---0-1---0-1---|-0-1---0---0-|-1
G ---|---|
D ---|---|
A -3-|-1-|-2
E ---|---|
E
B
G
D
A
E
E ---|
B -3-|-1
G ---|
D ---|
A ---|---0
E ---|
E
B
G
D ---2
A -0
E
E -|-8-7-12-10-8-|-14-14-14-15-15-17-|-17-15-14-15-14-12-14-|-12-11-12 B -|
G -|
D -|
A -|
E -|
E -14-15-15-|-15-15-15-|-14-14-12-10-|-12-10-8-|-7-8-10-12-14-15-|-17- B
G
D
A
E
E 15-15-14-14-12-12-|-10-12-14-|-15-14-14-12-12-12-10-|-8-|
B
G
D
A
E
E |
B |
G |
D |
A |-3-2-2-|
E |
E 0-0
B ----3-1-|---0-1-3-|
G
D
A
E
E ----0-|
B 0---0-|-3-3---3-3---3-|-3---3-3---3-|-1---1-1---1-|-1---1-1---1-|-0- G --0-0-|-2---2-2---2-2-|---2-2---2-2-|-0-0-0---0-0-|---0-0---0-0-|--- D
A
E
E
B 0---0-0---0-|-0-2-4-|---4---|---4---4-|-3-2-3-|-3-2-3-2-|-1-0-1-|--- G
D --4-4---4-4-|
A ----6
E
E
B
G 0-2-3
D
A
E
E -2-3-2-|-0
B
G
D
A
E
E -0---3-2-5-3-7-5-|-8-7-10-12-7-5-3-2-|-0
B ---0
G
D
A
E
E 3-|-2-0-2-3-8-|-7-5-3-2-3-5-|-3-2-|
B --|
G --|
D --|
A --|
E --|
E --0-2-3-5-3-2-0
B 0
G
D
A
E
E
B
G ----2
D 0-4
A
E
E 0-2-3-5-|-6-7-12-15-12-7-4-3-|-2-0---|-2-5-10-8-7-|-0
B
G
D
A
E
E 7-0-|
B ----|-4
G ----|-4
D ----|-4
A ----|---2-1-|-2-|
E ----|
E |
B |
G |
D |-2-4
A |
E |
E ----|
B ----|
G 3-2-|-1-2---0-2
D ----|
A ----|
E ----|
E -0---0
B ---4---3-2-3-|-1-0-1-0---|-0-1-0---0-|
G
D
A
E
E ---|
B ---|
G -2-|-0---0-|
D ---|---4---|-2-4
A ---|
E ---|
E
B 3---3-3---3-|-3---3-1---3-|-1---1-1---1-|-1---1-1---1-|-0-0---0-0--- G --2-2---2-2-|---2-2---2-2-|-2-0-0---0-0-|---0-0---0-0-|
D ----4
A
E
E --|
B 0-|
G --|
D 4-|
A 6-|-2-4---|
E --|
E
B
G
D
A 2---2-|
E --2---|
E
B
G
D -2-4-2-0
A
E
E |
B |
G |
D |-2-1-|-0-2-1-0-2-1-0-2-|-1-0-2-1-0-4-|-3-2-4-3-2-4-3-|-2-4-3-2-4-3- A |
E |
E ----|
B ----|
G ----|
D 2-2-|-1-0-2-1-0-2-|-1-0-2-1-0---|-2-4
A ----|
E ----|
E -2-0
B
G
D
A
E
E 5-2---2-5-7-5-2---2-5-|-7-5-2---2-5-7-5-2---2-5-|-7-5-3-2-0---0-|-2- B ----3
G
D
A
E
E 3-12-10-8-7-|-7-5-5-3-5-3-3-2-|-2-0-0
B
G
D
A
E
E 2-0---|-3-2-0---2-|-0-0-0-|-0-7-5-3-2-5-|-3-2-0---5-3-|-2-0---3-2-0- B ----3-|
G
D
A
E
E --|-0---0-2-3-|-10-8-7-5-3-2-3-|-2-0
B 3-|---0
G --|
D --|
A --|
E --|
E -3-|-0-7-12-10-8-7-5-3-|-2-5-2-0---2-5-|-2-0---2-5-2-0-|-7-8-7-7-8-| B ---|
G ---|
D ---|
A ---|
E ---|
E -7-7-12-10-|-8-7-5-3-2-0
B
G
D
A
E
E -|
B -|-3-3---|-0---0---0-|
G -|
D -|
A -|
E -|
E -0-2-3-5-3-2-0
B
G
D
A
E
E
B -1-3
G
D
A
E
E -0-2-3-10-|-10-5-5-5-5-5-|-5-3-2-0---5-3-|-2-0---5-3-2-7-|-5-3-2-0-7 B
G
D
A
E
E -5-|-3-2-0-7-5-3-8-|-7-5-3-2-8-7-|-5-3-2-8-7-5-10-|-10-8-7-5-3-2-0-3 B ---|
G ---|
D ---|
A ---|
E ---|
E -|-7-12-12-14-14-14-|-14-12-10-14-12-10-14-12-10-14-12-10-|-14-12-10 B -|
G -|
D -|
A -|
E -|
E -14-12-10-14-12-10-14-12-10-|-15-14-12-15-14-12-15-14-|-12-15-14-12- B
G
D
A
E
E 15-14-12-14-|-14-12-10-14-12-10-14-12-10-14-12-10-|-14-12-10-14-12-1 B
G
D
A
E
E 0-14-12-10-14-12-10-|-15-14-12-15-14-12-15-14-|-12-15-14-12-15-14-12 B
G
D
A
E
E -17-|-15-14-17-15-14-17-15-14-17-15-14-|-17-15-14-17-15-14-17-15-14- B ----|
G ----|
D ----|
A ----|
E ----|
E 17-15-14-|-19-19-19-19-19-|-19-19-19-19-|-17-17-17-17-17-|-17-17-17- B
G
D
A
E
E 17-|-19-19-19-19-19-|-19-19-19-19-|-17-17-17-17-17-|-17-17-17-17-|-1 B 15-|-17-17-17-17-17-|-17-17-17-17-|-15-15-15-15-15-|-15-15-15-15-|-1 G ---|
D ---|
A ---|
E ---|
E 9-19-19-19-19-|-19-19-19-19-|-17-17-17-17-17-|-17-17-17-17-|-19-19-1 B 7-17-17-17-17-|-17-17-17-17-|-15-15-15-15-15-|-15-15-15-15-|-17-17-1 G
D
A
E
E 9-19-19-|-19-19-19-19-|-17-17-17-17-17-|-17-17-17-17-| B 7-17-17-|-17-17-17-17-|-15-15-15-15-15-|-15-15-15-15-| G
D
A
E
www.francopistoni.it