Barzone.tab

BARZONE - B. B. King - www.francopistoni.it

E 
B
G
D
A
E
E
B ---6-6---6-|-8-6---6-6---6-8-|-6---6-8-6---4-6-4-|-3-5---7
G -7
D
A
E
E 8-6-8---8-|-5-5-5
B
G
D
A
E
E
B ---3-6-3-|---3-6-3
G -5
D
A
E
E -4-|
B ---|-4-6---6-|
G ---|
D ---|
A ---|
E ---|
E -6-3-|-6-6-6-6-|-6---6-3
B
G
D
A
E
E
B ----6-6--6---6---|--6---6--4---6---4---|-6--4-6----4-6-|-6
G 5-5---5----5---5-|
D
A
E
E 6-9-11-9-|-11-6-11-6-11-|-10-8---6---8---10---6-10-8-6---|
B
G
D
A
E
E -5-7-10-|-8-6-8---8-|-5-5-5-3
B
G
D
A
E
E -6-5---10----12----8---|-11-6-8---6-8-11-13-|-16-|-20-|-18-16-13-16- B
G
D
A
E
E 18-16-18-16-|-18-18-18-18-|-18-16-13-13-16-18-|-18-16-13-18-16-13-|- B
G
D
A
E
E 10-12-17-14----14-17----12-|-10
B
G
D
A
E
E --10-7-10-7-|
B 0
G
D
A
E
E 20-20-20-20-20-20-20-19-18-16----|-10-18-10-18-10-16-17-|-13-8-6-8-- B
G
D
A
E
E -5-8-10--13-|-11-8-6-4---4-6-|-6-6-4
B
G
D
A
E
E ---0-5
B -3
G
D
A
E
E
B -4
G ---5-4-3-1
D
A
E
E
B 4---3---1----|
G
D --3
A
E
E 4
B --6-4
G
D
A
E
E -3
B ---5---5-7---5-7---5-7---|---6---5-6-3-6-3---3
G
D
A
E
E
B
G -5-3---3-5-3-5-3--0-|
D
A
E
E
B
G 5
D --8-6---8-6
A
E
E
B
G
D
A 8-6-8---6---|-5-8---5-8---5-8---5-8---5-8---6-|-8---6-8---6---8---8- E
E
B
G
D
A 6---8---6-8-|-6-8-|
E --8---8
E |-8---6---5
B |---8---8---6-8-5-6---5
G |
D |
A |
E |
E -10---|
B ----8-|-6---8-6
G
D
A
E
E -|
B -|
G -|-7-7-5-3-4-3
D -|
A -|
E -|
E
B ---3-3-|-3-3-3---|-3-5---6-7
G
D -3
A
E
E
B --3-6-|-6-3-6---3
G 5
D
A
E
E |-10-10-8
B |
G |
D |
A |
E |
E
B --3---6-6---6-6-|
G 5---5
D
A
E
E
B
G 2-5-5-2-5-|-7
D
A
E
E
B
G
D 3-3--3-6-3-|-5-7-3-5-3---3-5---3-5-6-|-5-3---3-5-6-5-3---3-5-6-5-3- A ----6
E
E ----|
B ----|
G ----|
D --4-|-5-3---5-3---5-3---5-3---|-5-3---5-5-5-5-5-|
A 5---|
E ----|
E 7-10-7-|-1-3-6
B
G
D
A
E
E
B
G
D
A -6-5
E
E -6-6---6-|-6-8---5
B
G
D
A
E
E
B 9-6-4---7-6---6-4---|-4-6-6-4-6-6-6-4-6-6-6-4-6-6-6-|-3-5
G
D
A
E
E -|
B -|-6-3-3
G -|
D -|
A -|
E -|
E -10-11-10-8-|-8-6-8-6---4
B
G
D
A
E
E 6-4
B ----6-6-6---|
G
D
A
E
E
B
G --3
D 5---5-5---5-|-6
A
E
E --3-6-6-3-|-6-|---4-6-|----8-8-8-8-8-8-10-8-|----8-7----4---4---6--- B 7
G
D
A
E
E 4-|-6-6-4---|-6-8---5---3---|
B --|
G --|
D --|
A --|
E --|
E ----|
B ----|
G 3-5-|-5-5---5-7
D ----|
A ----|
E ----|
E ----6---|
B
G 5-5---5-|-5---5---|
D
A
E
E
B ----4
G 5-3---5-3---5-3
D
A
E
E
B
G 4-3---3-4-3---3-4-3
D ----6
A
E
E -|-8---5---3-5-|-5-3-5-3
B -|---8---5
G -|
D -|
A -|
E -|
E
B -4
G ---5-5---|
D
A
E
E
B 0-0---|---1
G ----2-|-3---5-3
D
A
E
E 8-|-8
B --|---6-6-6-6---6-|
G --|
D --|
A --|
E --|
E
B -6--4-6---6---6-|-8---8-5---4-5-3-5-6-7-10-12----|
G -5--3-5--5--8---|
D
A
E
E ---3---| B -5
G
D
A
E