Stenuo.tab

Trascrizione : Matteo Zaggia (matteozaggia@tin.it)
 



L'intro č eseguito con una chitarra acustica. Il resto della canzone č invece suonato 
con due chitarre elettriche (che ho diviso in GtDx e GtSx, nel modo in cui escono 
stereofonicamente dalle casse). Alla fine si affianca un piano rhodes 
(suonato nell'ep 'viba' da Roberta) e una delle chitarre č suonata con il bottleneck ed 
effettata con un delay.


[intro]

|
|
|
|-9-9-9-9-9-9-9-9
|-7-7-7-7-7-7-7-7
|-0-0-0-0-0-0-0-0-8-0-8-0-8-0-8-0- [riff] GtDx & GtSx |
|
|
|
|-7---7---7---7
|---0---0---0---0-8-0-8-0-8-0-8-0---0---0
| GtDx | |
| |
| |
| |
| |-7---7---7---7/9/10
| |---0---0---0
| | GtSx | |
| |
| |
| |
| |-7---7---7---7
| |---0---0---0---0----8-0-8-0-8-0
| [verso] GtDx & GtSx Em C |
|
|
|
|-7---7---7---7
|---0---0---0---0-8-0-8-0-8-0-8-0- 1.io non so se vorrei ti odio 2.io sto gių e tu no mi senti Em C 1.ancora pių che mai. sono 2.bene ancora,io non so. ora Em C 1.su
2.che ci____ sei___ tu mi sento Em C 1.freno che poi non sei tu
2.uguale č ora di andarsene gių___ [rit] | GtDx | |
| |
| |
| |
| |-5-5---5-5-5/7-7---7-7-5-5---5-5-5/7-7---7-7- | |
| | GtSx | |
| |
| |-11-11-11-11-11-11-11-11-11-11-11-11-11-12-12- | |
| |-9--9--9--9--9--9--9--9--9--9--9--9--9--9--9-- | |
| se stenui in pių non sei pių | GtDx | |
| |
| |---5---4
| |
| |-3---2---5h7-7-7-7-7-3---2---5h7-7-x-x-x-x- | |
| | GtSx | |
| |-17-17-17-17-17-17-17-17-17-17-17-17-17-17- | |-16-16-16-16-16-16-16-16-16-16-16-16-16-16- | |
| |-14-14-14-14-14-14-14-14-14-14-14-14-14-14- | |
| anoide
[riff] | GtDx | |
| |
| |
| |
| |-7---7---7---7
| |---0---0---0---0
| | GtSx | |
| |
| |
| |
| |-7---7---7h9-7-7h9-7
| |---0---0
| #verso #rit [solo] Chitarra pulita (un'altra distorta continua con il riff variandolo) |
|
|----12
|-14
|
|
|
|
|----12
|-14
|
|
|
|-0--0--0--0--0--0--0--0--0--0--0--0--0--0-- |-16-16-16-16-16-16-16-16-16-16-16-16-16-16- |-14-14-14-14-14-14-14-14-14-14-14-14-14-14- |
|
w\distortion |
|
|
|-12h14
|
|
|
|
|
|-12h14
|
|
#rit come prima 2 volte [finale] Una chitarra suona il riff principale variandolo. Una seconda chitarra esegue l'assolo in E pentatonica minore e infine, quando entra anche il piano Rhodes, suona con un bottleneck e viene effettata con un delay (Alberto usa il Memory Man della Electro-Harmonix). I volumi dell'echo vengono manipolati da Enrico R., cantante e chitarrista degli Hogwash, proprio durante la registrazione.