Ormogenia.tab

Trascrizione : Matteo Zaggia (matteozaggia@tin.it)
 



I riff della canzone sono pochi ma ho voluto scrivere tutte le piccole variazioni che 
suona Alberto.

Inizia la chitarra da sola:
|
|
|
|-9-11-11-9-11-11-11-11-9-11-11-9-11-11-11-11- 2 volte |-0-0--0--0-0--0--0--0--0-0--0--0-0--0--0--0-- |
poi altre due volte con basso e batteria. [verso] A(acc.basso) D |
|
|
|---11-11-11-11-11-11-11-11-11-11-11-11-9-9-9- |-0-0--0--0--0--0--0--0--0--0--0--0--0--0-0-0- |
affogami
F# A D A D |
|
|
|-11-11-11-11-11-11-12-12-9-11-11-9-11-11-12---9-11-11-9-11-11-12--- |-0--0--0--0--0--0--0--0--0-0--0--0-0--0--0----0-0--0--0-0--0--0---- |
dentro
A D |
|
|
|-11-11-11-11-11-11-11-11-11-11-11-11-11-11-11-11- |-0--0--0--0--0--0--0--0--0--0--0--0--0--0--0--0-- |
io non ho mai
F# A D A D |
|
|
|-11-11-11-11-11-11-11-11-9-11-11-9-11-11-11---9-11-11-9-11-11-12--- |-0--0--0--0--0--0--0--0--0-0--0--0-0--0--0----0-0--0--0-0--0--0---- |
un po'
A D |
|
|
|-9-11-11-11-11-11-11-11-11-11-11-11-11-11-11-11- |-0-0--0--0--0--0--0--0--0--0--0--0--0--0--0--0-- |
bruciami
F# A D A D |
|
|
|-11-11-11-11-11-11-11-11-9-11-11-9-11-11-12---9-11-11-9-11-11-12--- |-0--0--0--0--0--0--0--0--0-0--0--0-0--0--0----0-0--0--0-0--0--0---- |
stai____ con____ me [rit] F A F A |
|
|-2-2-2-2-2-2-2-2-2-2-2-2-2-2-2-2-2-2-2-2-2-2-2-2-2-2-2-2-2-2-2-2- |-3-3-3-3-3-3-3-3-2-2-2-2-2-2-2-2-3-3-3-3-3-3-3-3-2-2-2-2-2-2-2-2- |
|
con me____ con me____ F A F A |
|
|-5-5-5-5-5-5-5-5-4-4-4-4-4-4-4-4-5-5-5-5-5-5/7--\4-4-4-4-4-4-4-4- |-3-3-3-3-3-3-3-3-2-2-2-2-2-2-2-2-3-3-3-3-3-3/5--\2-2-2-2-2-2-2-2- |
|
con me
A D A D |
|
|
|-9-11-11-9-11-11-12---9-11-11-9-11-11-12--- 2 volte |-0-0--0--0-0--0--0----0-0--0--0-0--0--0---- |
[2°verso] A D |
|
|
|-11-11-11-11-11-11-11-11-11-11-11-11-11-9-9-11- |-0--0--0--0--0--0--0--0--0--0--0--0--0--0-0-0-- |
affogami
F# A D A D |
|
|
|-11-11-11-11-11-11
|-0--0--0--0--0--0--0---0-0--0--0-0--0--0----0-0--0--0-0--0--0---- |
dentro
A D |
|
|
|-11-11-11-11-11-11-11-11-11-11-11-11-11-11-11-11- |-0--0--0--0--0--0--0--0--0--0--0--0--0--0--0--0-- |
io non ho mai
F# A D A D |
|
|
|-11-11-11-11-11-11-11-11-9-11-11-9-11-11-12---9-11-11-9-11-11-12--- |-0--0--0--0--0--0--0--0--0-0--0--0-0--0--0----0-0--0--0-0--0--0---- |
un po'____ di___ me [2°rit] F A F A |
|
|-2-2-2-2-2-2-2-2-2-2-2-2-2-2-2-2-2-2-2-2-2-2-2-2-2-2-2-2-2-2-2-2- |-3-3-3-3-3-3-3-3-2-2-2-2-2-2-2-2-3-3-3-3-3-3-3-3-2-2-2-2-2-2-2-2- |
|
con te____ con te____ F A F A |
|
|-7-7-7-7-7-7-7-7-2-2-2-2-2-2-2-2-2-2-2-2-2-2----2-2-2-2-2-2-2-2- |-5-5-5-5-5-5-5-5-2-2-2-2-2-2-2-2-3-3-3-3-3-3/5-\2-2-2-2-2-2-2-2- |
|
con te
(echo ripetuto fino a #) [bridge] Bb D Bb D |
|
|-10-10-10-10-10-10-10-10-9-9-9-9-9-9-9-9-10-10-10-10-10-12-12--9-9-9-9-9-7-7/ |-8--8--8--8--8--8--8--8--0-0-0-0-0-0-0-0-8--8--8--8--8--10-10--0-0-0-0-0-5-5/ |
|
Bb D |
|
|10-10-10-10-10-10-10-10-9-9-9-9-9-9-9-9-10-10-10-10-10-10-12-12-9-9-9-9-9-9-9 |8--8--8--8--8--8--8--8--0-0-0-0-0-0-0-0-8--8--8--8--8--8--10-10-0-0-0-0-0-0-0 |
|
Bb D |
|
|-14-14-14-14-14-12-12-/14-14-14-14-14-14-14-14- |-12-12-12-12-12-10-10-/12-12-12-12-12-12-12-12- |
|
Bb D |
|
|-15-15-15-15-15-15-15-15-14-14-14-14-14-14-14-14- |-13-13-13-13-13-13-13-13-12-12-12-12-12-12-12-12- |
|
Bb D |
|
|-14-14-14-14-14-12-12-/10-10-10-10-10-10-10-10- |-12-12-12-12-12-10-10-/8--8--8--8--8--8--8--8-- |
|
Bb D |
|
|-10-10-10-10-10-10-10-10-9-9-9-9-9-9-9-9- |-8--8--8--8--8--8--8--8--7-7-7-7-7-7-7-7- |
|
Bb D |
|
|-10-10-10-10-10-10-10-10-10-10-10-10-10-12-12-12- |-8--8--8--8--8--8--8--8--8--8--8--8--8--10-10-10- |
|
Bb D |
|
|-14-14-14-14-14-14-14-14-14-14-14-14-14-14-15- |-12-12-12-12-12-12-12-12-12-12-12-12-12-12-13- |
|
Bb D |
|
|-17-17-17-17-17-17-17-17-17-17-19-19-19-19-19-19- |-15-15-15-15-15-15-15-15-15-15-17-17-17-17-17-17- |
|
Bb D |
|
|-19-19-19-19-19-19-19-19-19-19-19-19-19-19-0-0- |-17-17-17-17-17-17-17-17-17-17-17-17-17-17-0-0- |
|
A D A D |
|
|
|-9-11-11-9-11-11-12---9-11-11-9-11-11-12--- 2 volte |-0-0--0--0-0--0--0----0-0--0--0-0--0--0---- |
A |
|
|-11
|-0
|
|