Baby killer.tab

From - Thu Dec 10 05:55:42 1998
Path: news.tin.it!area.cu.mi.it!news-spur1.maxwell.syr.edu!news.maxwell.syr.edu!sunqbc.risq.qc.ca!wesley.videotron.net!Pollux.Teleglobe.net!server-b.cs.interbusiness.it!not-for-mail
From: Andrea Bandera <a.bandera@dada.it>
Newsgroups: it.arti.musica.spartiti
Subject: TAB: Baby killer [Timoria]
Date: Mon, 07 Dec 1998 14:13:11 +0100
Organization: DADAnet
Lines: 818
Message-ID: <366BD466.DBA8BD10@dada.it>
NNTP-Posting-Host: 194.184.248.10
Mime-Version: 1.0
Content-Type: text/plain; charset=us-ascii
Content-Transfer-Encoding: 7bit
X-Mailer: Mozilla 4.5 [en] (Win95; I)
X-Accept-Language: it,en
Cache-Post-Path: tzara.dada.it!unknown@dadovago94-p3.dada.it
X-Cache: nntpcache 2.3.3b4 (see http://www.nntpcache.org/)
Xref: news.tin.it it.arti.musica.spartiti:4005620
X-Mozilla-Status: 8000

Non so quanti siano interessati a questa canzone, comunque provate a
suonarla e fatemi sapere cosa ne pensate.
Ciao

Andrea


Titolo: Baby killer Artista: Timoria Album: Ritmo e dolore Autore tab: Andrea Bandera <a.bandera@dada.it> Chitarra 1: E||
B||
G||
D||
A||--5
E||
Dmadd9



--5

Dmadd9/C Dmadd9/Bb Dmadd9/A




--8
Dmadd9/Bb Dmadd9/A Dmadd9/F Dmadd9/E




--6
Dmadd9 Dm Dmadd9



--5

Dmadd9/C Dmadd9/Bb Dmadd9/A




--8
Dmadd9/Bb Dmadd9/A Dmadd9/F Dmadd9/E




--6
Dmadd9 Dm



--5

Dmadd9 Dmadd9/C





Dmadd9/Bb Dmadd9/A Dmadd9/Bb Dmadd9/A




--6
Dmadd9/F Dmadd9/E Dmadd9 Dm



--8

Dmadd9 Dmadd9/C



--5

Dmadd9/Bb Dmadd9/A Dmadd9/Bb Dmadd9/A




--6
Dmadd9/F Dmadd9/E Dmadd9 Dm



--8

Dmadd9 Dmadd9/C



--5

Dmadd9/Bb Dmadd9/Bb




--6
Dmadd9 Dmadd9/C



--5

Dmadd9/Bb Dmadd9/Bb




--6
Dmadd9 Dmadd9/C



--5

Dmadd9/Bb Dmadd9/Bb




--6
Dmadd9 Dmadd9/C



--5

Dmadd9/Bb Dmadd9/Bb




--6
Chitarra 2: Dm C Bb

--7
--7
--5

Bb Bb5 A5 F5 E5



--1

Dm D5 Dm

--7
--7
--5

Har Har C Bb Bb

--5
--5
--3

Bb5 A5 F5 E5




--6
Dm C Bb

--7
--7
--5

Bb Bb5 A5 F5 E5



--1

D5 D5 Bb5 A5 D5

--7--7--7--7--7--7--7--7--|--7--7--7--7
--7--7--7--7--7--7--7--7--|--7--7--7--7--8----7----|--7--7--7--7--7--7--7--7--| --5--5--5--5--5--5--5--5--|--5--5--5--5--8----7----|--5--5--5--5--5--5--5--5--|
D5 Bb5 A5 D5 D5 Bb5 A5

--7--7--7--7
--7--7--7--7--8----7----|--7--7--7--7--7--7--7--7--|--7--7--7--7--8----7----| --5--5--5--5--8----7----|--5--5--5--5--5--5--5--5--|--5--5--5--5--8----7----|
D5 D5 Bb5 A5 D5

--7--7--7--7--7--7--7--7--|--7--7--7--7
--7--7--7--7--7--7--7--7--|--7--7--7--7--8----7----|--7--7--7--7--7--7--7--7--| --5--5--5--5--5--5--5--5--|--5--5--5--5--8----7----|--5--5--5--5--5--5--5--5--|
D5 D5 D5 Bb5 A5

--7--7--7--7--7--7--7--7--|--7--7--7--7--7--7--7--7--|--7--7--7--7
--7--7--7--7--7--7--7--7--|--7--7--7--7--7--7--7--7--|--7--7--7--7--8----7----| --5--5--5--5--5--5--5--5--|--5--5--5--5--5--5--5--5--|--5--5--5--5--8----7----|
D5 D5

--7--7--7--7--7--7--7--7--|--7--7--7--7--7--7--7--7--| --7--7--7--7--7--7--7--7--|--7--7--7--7--7--7--7--7--| --5--5--5--5--5--5--5--5--|--5--5--5--5--5--5--5--5--|
D5 D5 Bb5 A5 D5

--7--7--7--7--7--7--7--7--|--7--7--7--7
--7--7--7--7--7--7--7--7--|--7--7--7--7--8----7----|--7--7--7--7--7--7--7--7--| --5--5--5--5--5--5--5--5--|--5--5--5--5--8----7----|--5--5--5--5--5--5--5--5--|
D5 D5 D5 Bb5 A5

--7--7--7--7--7--7--7--7--|--7--7--7--7--7--7--7--7--|--7--7--7--7
--7--7--7--7--7--7--7--7--|--7--7--7--7--7--7--7--7--|--7--7--7--7--8----7----| --5--5--5--5--5--5--5--5--|--5--5--5--5--5--5--5--5--|--5--5--5--5--8----7----|
G5 G5


--5--5--5--5--5--5--5--5--|--5--5--5--5--5--5--5--5--| --5--5--5--5--5--5--5--5--|--5--5--5--5--5--5--5--5--| --3--3--3--3--3--3--3--3--|--3--3--3--3--3--3--3--3--| G5 G5


--5--5--5--5--5--5--5--5--|--5--5--5--5--5--5--5--5--| --5--5--5--5--5--5--5--5--|--5--5--5--5--5--5--5--5--| --3--3--3--3--3--3--3--3--|--3--3--3--3--3--3--3--3--| D5 D5 Bb5 A5 D5

--7--7--7--7--7--7--7--7--|--7--7--7--7
--7--7--7--7--7--7--7--7--|--7--7--7--7--8----7----|--7--7--7--7--7--7--7--7--| --5--5--5--5--5--5--5--5--|--5--5--5--5--8----7----|--5--5--5--5--5--5--5--5--|
D5 Bb5 A5 G5 G5

--7--7--7--7
--7--7--7--7--8----7----|--5--5--5--5--5--5--5--5--|--5--5--5--5--5--5--5--5--| --5--5--5--5--8----7----|--5--5--5--5--5--5--5--5--|--5--5--5--5--5--5--5--5--|
G5 G5


--5--5--5--5--5--5--5--5--|--5--5--5--5--5--5--5--5--| --5--5--5--5--5--5--5--5--|--5--5--5--5--5--5--5--5--| --3--3--3--3--3--3--3--3--|--3--3--3--3--3--3--3--3--| D5 D5 Bb5 A5 D5

--7--7--7--7--7--7--7--7--|--7--7--7--7
--7--7--7--7--7--7--7--7--|--7--7--7--7--8----7----|--7--7--7--7--7--7--7--7--| --5--5--5--5--5--5--5--5--|--5--5--5--5--8----7----|--5--5--5--5--5--5--5--5--|
D5 Bb5 A5 G5 G5

--7--7--7--7
--7--7--7--7--8----7----|--5--5--5--5--5--5--5--5--|--5--5--5--5--5--5--5--5--| --5--5--5--5--8----7----|--5--5--5--5--5--5--5--5--|--5--5--5--5--5--5--5--5--|
G5 G5 D5


--5--5--5--5--5--5--5--5--|--5--5--5--5--5--5--5--5--|--7
--5--5--5--5--5--5--5--5--|--5--5--5--5--5--5--5--5--|--5
--3--3--3--3--3--3--3--3--|--3--3--3--3--3--3--3--3--|
C5 Bb5 Bb5

--5
--5
--3

Bb5 A5 F5 E5 D5


--8
--8
--6
D5 D5 C5 Bb5

--7
--7
--5

Bb5 Bb5 A5 F5 E5

--3
--3
--1

D5 D5

--7--7--7--7--7--7--7--7--|--7--7--7--7--7--7--7--7--| --7--7--7--7--7--7--7--7--|--7--7--7--7--7--7--7--7--| --5--5--5--5--5--5--5--5--|--5--5--5--5--5--5--5--5--|
D5 D5

--7--7--7--7--7--7--7--7--|--7--7--7--7--7--7--7--7--| --7--7--7--7--7--7--7--7--|--7--7--7--7--7--7--7--7--| --5--5--5--5--5--5--5--5--|--5--5--5--5--5--5--5--5--|
D5 D5

--7--7--7--7--7--7--7--7--|--7--7--7--7--7--7--7--7--| --7--7--7--7--7--7--7--7--|--7--7--7--7--7--7--7--7--| --5--5--5--5--5--5--5--5--|--5--5--5--5--5--5--5--5--|
D5 D5

--7--7--7--7--7--7--7--7--|--7--7--7--7--7--7--7--7--| --7--7--7--7--7--7--7--7--|--7--7--7--7--7--7--7--7--| --5--5--5--5--5--5--5--5--|--5--5--5--5--5--5--5--5--|
D5 D5

--7--7--7--7--7--7--7--7--|--7--7--7--7--7--7--7--7--| --7--7--7--7--7--7--7--7--|--7--7--7--7--7--7--7--7--| --5--5--5--5--5--5--5--5--|--5--5--5--5--5--5--5--5--|
D5 D5

--7--7--7--7--7--7--7--7--|--7--7--7--7--7--7--7--7--| --7--7--7--7--7--7--7--7--|--7--7--7--7--7--7--7--7--| --5--5--5--5--5--5--5--5--|--5--5--5--5--5--5--5--5--|
D5 D5

--7--7--7--7--7--7--7--7--|--7--7--7--7--7--7--7--7--| --7--7--7--7--7--7--7--7--|--7--7--7--7--7--7--7--7--| --5--5--5--5--5--5--5--5--|--5--5--5--5--5--5--5--5--|
D5 D5

--7--7--7--7--7--7--7--7--|--7--7--7--7--7--7--7--7--| --7--7--7--7--7--7--7--7--|--7--7--7--7--7--7--7--7--| --5--5--5--5--5--5--5--5--|--5--5--5--5--5--5--5--5--|
D5 D5

--7--7--7--7--7--7--7--7--|--7--7--7--7--7--7--7--7--|
--7--7--7--7--7--7--7--7--|--7--7--7--7--7--7--7--7--|
--5--5--5--5--5--5--5--5--|--5--5--5--5--5--5--5--5--|

D5 C5





Bb5 Bb5 4x

--3--3--3--3--3--3--3--3--|--3--3--3--3--3--3--3--3--*|| --3--3--3--3--3--3--3--3--|--3--3--3--3--3--3--3--3--*|| --1--1--1--1--1--1--1--1--|--1--1--1--1--1--1--1--1---||
D5 C5 Bb5

--7--7--7--7--7--7--7--7--|--5--5--5--5--5--5--5--5--|--3
--7--7--7--7--7--7--7--7--|--5--5--5--5--5--5--5--5--|--3
--5--5--5--5--5--5--5--5--|--3--3--3--3--3--3--3--3--|--1

Assolo:






--8b---8b---8b---8b---|--8b---8b---8b-6h8p6










--15p13p12h15p13p12h15p13p12h15p13p12h15p13p12h15p13p12h15p13p12h15p13h12-|




--15b







----10--10--10--10





--12b





--10





----13--13--13--13
----12b-12b-12b-12b-12--10--12--|