In ogni atomo.tab


From: giuspe@my-dejanews.com Date: Mon, 17 May 1999 15:08:21 GMT Per gentile concessione del mio caro amico Corrado fago golfarelli : In ogni atomo [Intro] e
B
G--5-10---10--12-13-10--10-12-13-9-5---- D
A
E
e
B
G--5-10---10-12-13-10--10-12-13--17(BENDING SU 13) D
A
E
Ciao, Giuseppe. --== Sent via Deja.com http://www.deja.com/ ==-- ---Share what you know. Learn what you don't.---
From: "miki79" <voltron17@hotmail.com> Date: Thu, 1 Jul 1999 16:00:05 +0200 #
#This file is the author's own work and represents their interpretation of the# #song. You may only use this file for private study, scholarship, or research.# #
#-- File created with Instab - http://www.pconline.com/~smcarey/instab.html --# #
Author/Artist: Negrita Title: In ogni atomo Album: Reset Transcribed by: miki79 Email: voltron17@hotmail.com 1 giro di basso F G# C C Fm G# C C Intro

-5-/-10-10---10---|-/-12-b/-13-/-10-10---10---|-/-12-b/-13-/-9-|-/-5-/





-5-/-10-10---10---|-/-12-b/-13-/-10-10---10---|-/-12-b/-13-/-17-|-17v



Fm G# Hai le carte passi Giocati i tui assi C Punta pure ciò che hai pensi troppo a cosa fai Fm G# Perché a quelli come noi Serve spazio ed aria sai C Troppo poco quel che c'è troppo poco anche per te C# G# Sei uguale a me Altro che no D# A# C# Sei come me In ogni atomo Ogni atomo Fm G# C C

-5-/-10-10---10---|-/-12-b/-13-/-10-10---10---|-/-12-b/-13-/-9-|-/-5-/



Fm G# Maledetti i fragili, che si fanno scrupoli C che si siupano da sè, siamo vuoti a perdere Fm G# ma stavolta è colpa tua, prendi al volo e metti via C che di donne come te, lascia stare non ce n'è C# G# Sei0 uguale a me Altro che no D# A# Sei come me In ogni atomo C# G# Sei uguale a me Altro che no D# A# Sei come me In ogni atomo F# Fm D# Ogni atomo Ogni atomo F# Fm D# Ogni atomo Ogni atomo Fm G# C C solo #1

-7-/-15-/-13-|-7-/-15-/-13-|-7-/-15-/-13-|-7-/-15-/-17-/-15-|





-7-/-15-/-13-|-7-/-15-/-13-|-7-/-15-/-13-|-7-/-15-/-17-/-15-|-/13



Fm G# C C Fm G# C C

-5-/-10-10---10---|-/-12-b/-13-/-10-10---10---|-/-12-b/-13-/-9-|-/-5-/





-5-/-10-10---10---|-/-12-b/-13-/-10-10---10---|-/-12-b/-13-/-17-|-17v



Fm G# Hai le carte passi, giocati i tuoi assi C In due rischio minimo, siamo in condomminio Fm G# Che chi mangia polvere lascia i denti mordere C e se ti abbandonerai, io ti curerò Fm G# medicine come noi, non ne inventeranno mai C siamo soci.. I'll give you all my love C# G# Sei uguale a me Altro che no D# A# Sei come me In ogni atomo C# G# Sei uguale a me Altro che no D# A# Sei come me In ogni atomo F# Fm D# Ogni atomo Ogni atomo F# Fm D# Ogni atomo Ogni atomo solo #2

-7-/-15-/-13-|-7-/-15-/-13-|-7-/-15-/-13-|-7-/-15-/-17-/-15-|




-7-/-15-/-13-|-7-/-15-/-13-|-7-/-15-/-13-|-7-/-15-/-17-/-15-|-/13-|




--15-15-15-17p16p15----|--15-15-15-17p16p15----|--15-15-15-17p16p15----|




--15-15-15-17p16p15----|--15-15-15-17p16p15----|--15-15-15-17p16p15----|




-15-/-20-|-15-/-20-|-15/-20-|-20-/-15-|-14-|-13-|-12-|


buon divertimento Miki79 voltron17@hotmail.com