Bomboloni.tab

Author/Artist: Gianna Nannini
Title: Bomboloni
Album: Bomboloni


La parte all'inizio prima che inizia il riff; anche qui come per l'assolo
sotto c'č un certo baccano che di certo non aiuta il vostro povero trascrittore
-12
-12-12--12----12----12




Il riff

-9-9-9-9-9-9-9-9----9-9-9-9-9-9-9-9----9-9-9-9-9-9-9-9----9-9-9-9--9



Il break alla fine del primo ritornello; le x sono note stoppate dalla mano sinistra mi5 la5 sol5


-2-x-x-2--x-x-2--x-2--7--5
-2-x-x-2--x-x-2--x-2--7--5
-0-0-0-0--0-0-0--0-0--5--3
L'assolo; questa credo sia la parte della chitarra che perņ si confonde con tutto il baccano che ha intorno

----7---7
-/9---9v--9v--/9---9v--/9---9


mi5 Regalami una bomba che ti faccio vedere io la gara di chi mangia troppo oggi vinco io regalami una bombola del gas per il domani che devo cucinarti un mondo nuovo e senza problemi mi5' do5 Dai regalami una bomba bombolo mi5' do5 che ci voglio fare un capitombolo re5 do5 sol5 do5 si5 tieni strette le mie mani bomboloni bomboloni bomboloni Regalami un martello che stanotte ti pianto io un chiodo fisso nel cervello oggi offro io regalami una bomba che ti faccio scoppiare io un mondo nuovo caldo caldo come dico io Dai regalami una bomba bombolo che ci voglio fare un capitombolo tieni strette le mie mani bomboloni bomboloni bomboloni Dai regalami una bomba bombolo che ci voglio fare un capitombolo tieni strette le mie mani bomboloni bomboloni bomboloni Gli accordi usati mi5 mi5' do5 re5 sol5 si5 la5


----2----|----9----|----5----|----7----|----5----|----4----|----7
----2----|----7----|----3----|----5----|----5----|----2----|----7
----0----|