Supereroi.btab


From: "Cereal Killer" <aballardini@infosfera.it> Date: Sun, 14 Apr 2002 14:40:49 +0200
MEGANOIDI "SuperEroi" Into the Darkness into the moda 2001 version --Tabbed by Ghigo-- ghigo85@libero.it
Questa la seconda versione che ho tablato..Mi sono accorto che la prima era terribilmente sbagliata..per cui se qualcuno fosse in possesso della prima,mi scuso.. Questa canzone fantastica e Jacco grandissimo!! PS:Spero vivamente che questa volta sia giusta!!
G
D
A--2-3-5-3-2--2-3-5-3-2----6
E-3
G
D
A--5-x-5-2---5----6-6h8---8-- E-3
G
D
A--2-3-5-3-2--2-3-5-3-2----6
E-3
G
D
A--2-3-5-3-2--2-3-5-3-2----6
E-3
G
D
A
E-5-5-4-5-5
G
D
A--7-7-7-7-4-4-4-/5-5-- E-5-5-5-5
G
D
A
E-5-5-4-5-5
B
G
D
A-6-6-/8-\6-5-5-5-6--6-6--3-3-3-3-2-0- E
G
D
A-2-3- E
(Con la tromba/With the trumpet) G
D
A-5-x-5-4-3- E
G
D
A--2-3-5-3-2--2-3-5-3-2----6
E-3
G
D
A--5-x-5-2---5----6-6h8---8-- E-3
G-15-15-15-13-12
D
A
E
G
D
A--2-3-5-3-2--2-3-5-3-2----6
E-3
G
D
A--2-3-5-3-2--2-3-5-3-2----6
E-3
G
D
A
E-5-5-4-5-5
G
D
A--7-7-7-7-4-4-4-/5-5-- E-5-5-5-5
G
D
A
E-5-5-4-5-5
B
G
D
A-6-6-/8-\6-5-5-5-6--6-6--3-3-3-3-2-0- E
G
D
A-2-3- E
__Assolo(Bass Solo)
G
D--5-5-5-5-5-5-5-5
A
E-3-3-3-3-3-3-3-3
G-15-15-13-12
D
A
E
G
D--5-5-5-5-5-5-5-5
A
E-3-3-3-3-3-3-3-3
G-15-15-15--13-12
D
A
E
__Ripeti fino alla fine dell'assolo
G
D
A
E-5p4
G
D
A
E-5-5-4-5-5-4-5-5-4---- G
D
A--7-7-7-7-4-4-4-/5-5-- E-5-5-5-5
G
D
A
E-5-5-4-5-5
B
G
D
A-6-6-/8-\6-5-5-5-6--6-6--3-3-3-3-2-0- E
G
D
A-2-3- E
Outro G
D
A
E-6-6-6-6-6/10-8-6-3-3-3-3-3-6-6-6-6-10-6-8-10-6-6-10-6-8-10- G
D
A
E-3-3-3-3-3-3-3- G
D
A
E-6-6-6-6-6-6-6- Ripeti fino alla fine...
1)Durante l'assolo,nei riff sul Do nella corda Sol sul 15mo tasto, potete sostituirli con questo riff... (che poi mi sembra fosse il modo in cui lo faceva nel live!) G-..|--8-8-8-8--10--10
D-..|
A-..|-6-6-6-6--8--8
E-..|
2)Se volete con il basso imitare il riff delle trombe sostituite i riff di apertura cos--- G
D
A-5-x-5-4-3- E
G
D
A--2-3-5-5---5-3-2-3-3-|..-- E-3
3)Continuate ad ascoltare la canzone fino oltre i 5 minuti... Troverete un assolo del bassista Jacco(mitico Jacco!!!).. se volete sapere com' scrivetemi oppure cercate la tab su internet.. oppure aspettate la mia tab!! Sperando sia tutto giusto...vi saluto!!! Taken from The Bass Tab Archive ~ http://www.basstabarchive.com

SUPEREROI (Basso) Meganoidi (Album INTO THE DARKNESS, INTO THE MODA) Tabbato da Canna Joint & Lele Casbah QUESTO E' GIUSTO DAVVERO!!! Q E E E E E E Q E E E E E E Q E E E E E E Q E E E E E E ||
||o
||o----2-2-5-5-2-2-|----2-2-5-5-2-2-|-6
||--3
Verse Q Q Q Q Q Q Q Q Q Q Q Q Q Q Q Q |
|----5--x--5--|----5--x--5--|
|
|-3
Q Q Q Q Q Q Q Q Q Q Q Q Q Q E Q.. |
|----5--x--5--|----5--x--5--|
|
|-3
Q E E E E E E Q E E E E E E Q E E E E E E Q E E E E E E |
|
|----2-2-5-5-2-2-|----2-2-5-5-2-2-|-6
|-3
Q E E E E E E Q E E E E E E Q E E E E E E q q q q |
|
|----2-2-5-5-2-2-|----2-2-5-5-2-2-|-6
|-3
Chorus W H Q Q E E E E E E E E E E E E E E Q |
|
|
|
E E E E E E E E E E E E E E E E E E E E E E E E E E E E E E Q |
|
|-x-6---6---6---6-|---6---6---8
|
Q E E E E E E Q E E E E E E Q Q E E Q +H H |
|
|-6--6-6-6-6-6-6-|-5--5-5-6-6-6-6-|-3--3--3-3-3--|-(3)----1----| |
H E E Q q Q H H +Q Q H H |
|
|-0----0-0-0--|-1
|
Pre-Verse Q E E E E E E Q E E E E E E Q E E E E E E Q E E E E E E ||
||o
||o----2-2-5-5-2-2-|----2-2-5-5-2-2-|-6
||--3
Verse Q Q Q Q Q Q Q Q Q Q Q Q Q Q Q Q |
|----5--x--5--|----5--x--5--|
|
|-3
Q Q Q Q Q Q Q Q Q Q Q Q Q Q E Q.. |
|----5--x--5--|----5--x--5--|
|
|-3
Q E E E E E E Q E E E E E E Q E E E E E E Q E E E E E E |
|
|----2-2-5-5-2-2-|----2-2-5-5-2-2-|-6
|-3
Q E E E E E E Q E E E E E E Q E E E E E E q q q q |
|
|----2-2-5-5-2-2-|----2-2-5-5-2-2-|-6
|-3
Chorus W H Q Q E E E E E E E E E E E E E E Q |
|
|
|
E E E E E E E E E E E E E E E E E E E E E E E E E E E E E E Q |
|
|-x-6---6---6---6-|---6---6---8
|
Q E E E E E E Q E E E E E E Q Q E E Q +H H |
|
|-6--6-6-6-6-6-6-|-5--5-5-6-6-6-6-|-3--3--3-3-3--|-(3)----1----| |
Interlude H E E Q E E E E E E E E W +W |
|
|-0----0-0-0--|-1-1-1-1-3-3-3-3-|
|
> +W +W +W +W |
|
|
|-(3)
+W +W E E E E E E E E E E E E E E E E |
|
|
|-(3)
Pre-Chorus 1.,2. E E E E E E E E E E E E E E E E 4x W E E E E E E E E 3x |---8---8---8---8-|---10---10
|
|-6---6---6---6---|-8----8
|
3. |-3-| E E E E Q Q Q E E E E E E E E E E E E Q Q |
|
|---6-6-6-8-6-5--|
|
Chorus E E E E E E E E E E E E E E E E E E E E E E E E E E E E E E Q ||
||o
||o-x-6---6---6---6-|---6---6---8
||
Q E E E E E E Q E E E E E E Q Q E E Q +H H |
|
|-6--6-6-6-6-6-6-|-5--5-5-6-6-6-6-|-3--3--3-3-3--|-(3)----1----| |
Outro Q Q E E Q Q Q Q Q Q E E E E Q E +E +E E +E +E Q |
|
|-0--0--0-0-0--|-1--1--3
|
Q E E E E E E Q E E E E E E Q E E E E E E E +E +E E +E +E Q |
|
|-0--0-0-0-0-0-0-|-0--0-0-0-0-0-0-|
|
> Q E E E E E E E +E +E E +E +E Q 4x W +W |
|-1--1-1-1-1-1-1-|
|
|
Legenda Durata
W - whole; H - half; Q - quarter; E - 8th; S - 16th; T - 32nd; X - 64th; . - note dotted; .. - note double dotted Legenda musicale
| - bar || - double bar ||o - repeat start o|| - repeat end *| - double bar (ending) : - bar (freetime) $ - Segno & - Coda