Balliamo sul mondo.tab

Balliamo sul mondo - Ligabue - www.francopistoni.it

E 
B
G
D
A
E
E 0---|-5---3---2---3---|-2---3-2
B 1-3-|---3---3---3---3-|---3
G ----|
D ----|
A ----|
E ----|
E 5---3---2---3---|-2---3-2
B --3---3---3---3-|---3
G
D
A
E
E --2---3---|-2---3-2
B 3---3---3-|---3
G
D
A
E
E ----|
B ----|
G 2---|
D 0-2-|-0-0-0-0-0-0-0-4-|
A --0-|
E ----|-3-3-3-3-3-3-3---|
E
B
G 2-2-2---|
D 0-0-0-2-|-0-0-0-0-0-0-0-4-|
A
E
E --|
B 3-|
G 2-|
D 0-|-0-0-0-0-0-0-0-4-|
A --|
E --|-3-3-3-3-3-3-3---|
E
B --3-3-|
G 2-2-2-|
D 0-0-0-|-0-0-0-0-0-0-0-4-|
A
E
E |-2---3-2
B |---3
G |
D |
A |
E |
E 3-2
B ----3-3-|---3---3---3---3-|---3---1-3-|---3---3---3---3-|---3
G
D
A
E
E --|-5---3---2---3---|-2---3-0-|-10-|
B 3-|---3---3---3---3-|---3---1-|-10-|
G --|
D --|
A --|
E --|
E 2
B --3-3-|---3---3---3---3-|---3---1-3-|---3---3---3---3-|---3
G
D
A
E
E |-5---3---2---3---|-2---3-0-|
B |---3---3---3---3-|---3---1-|
G |
D |
A |
E |
E
B
G 0-0-0-0-0-0-0-|
D
A 3-3-3-3-3-3-3-|-0-0-0-0-0-0-0-0-|
E
E |
B |
G |-0-0-0-0-0-0-0---|
D |
A |-3-3-3-3-3-3-3-0-|-4-0-4-|
E |
E
B
G 0-0-0-0-0-0-|
D
A 3-3-3-3-3-3-|-0-0-0-0-0-0-0-0-|
E
E
B
G 0-0-0-0-0-0-0---|
D
A 3-3-3-3-3-3-3-0-|-4-0-4-|
E
E --3---|-2---3-0---|-5---3---2---3---|-2---3-2
B 3---3-|---3---1-3-|---3---3---3---3-|---3
G
D
A
E
E |-2---3-0---|-5---3---2---3---|-2---3-2
B |---3---1-3-|---3---3---3---3-|---3
G |
D |
A |
E |
E 3-0-|-10-|
B --1-|-10-|
G ----|-7--|
D ----|----|
A ----|----|
E ----|----|
E 3-5-|-3-1
B ----|
G ----|
D ----|
A ----|
E ----|
E -3-3-3-|-3-3-3-3-3-3-3-5-5-3-3-|-3-3-3-3-3-3-3-5-5-10-10-|-10-10-10- B -3-3-3-|-3-3-3-3-3-3-3-3-3-3-3-|-3-3-3-3-3-3-3-3-3
G
D
A
E
E 10-10-10-|-10-10-|-10-|
B
G
D
A
E
E ---|
B ---|
G ---|
D ---|
A ---|
E ---|
E ---8---|
B
G -5
D
A
E
E
B
G
D
A
E
E |-5---3---2---3---|-2---3-0---|-5---3---2---3---|-2---3-2
B |---3---3---3---3-|---3---1-3-|---3---3---3---3-|---3
G |
D |
A |
E |
E 3---2---3---|-2---3-0---|-5---3---2---3---|-2---3-2
B --3---3---3-|---3---1-3-|---3---3---3---3-|---3
G
D
A
E
E --3---|-2---3-0-|-10-|
B 3---3-|---3---1-|-10-|
G
D
A
E
E --2---3---|-2---3-0---|-5---3---2---3---|-2---3-2
B 3---3---3-|---3---1-3-|---3---3---3---3-|---3
G
D
A
E
E 3---|-2---3-0---|-5---3---2---3---|-2---3-2
B --3-|---3---1-3-|---3---3---3---3-|---3
G ----|
D ----|
A ----|
E ----|
E 2---3-0---|-5---3---2---3---|-2---3-2
B --3---1-3-|---3---3---3---3-|---3
G
D
A
E
E 0---|-10-| B 1-3-|-10-| G ----|-7--| D ----|----| A ----|----| E ----|----|

BALLIAMO SUL MONDO Intro: D G C Am Riff principale (si ripete anche durante il ritornello): e:
B:
G:
D:
A:
E:

--7





--7




NOTA2: All'inizio sembra che ci siano 'troppe note' e che la cosa non torni; continuate a provare e convincetevi: va suonata cosi'. Se vi puo' aiutare ho recuperato un MIDI (potete usarlo con Guitare Pro). Se proprio non ci riuscite provare a sopprimere i re (III corda VII tasto) intermedi: suona bene lo stesso. [Altra versione fornita da Andrea Zanovello: stesse note ma con diverse posizioni (in effetti molto piu' comodo soprattutto se usate un barre' sul 7 tasto (spesso il Liga dal vivo usa uno slide sull'indice)] e:
B:
G:
D:
A:
E:

--7





--7




Sotto la strofa l'elettrica fa dei power chord con palm muting: A5: 577xxx D5: x577xx G5: 355xxx C5: x355xx Am D G C Am Siamo della stessa pasta bionda non la bevo sai. D G C Am Ce l'hai scritto che la vita non ti viene come vuoi. D G C Am Ma e' la tua e per me e' speciale e se ti puo' bastare sai D G C Am Che se hai voglia di ballare uno pronto qui ce l'hai Rit. D Balliamo sul mondo!! G C Am Va bene qualsiasi musica D cadremo ballando G C Am sul mondo lo sai si scivola. D G Facciamo un fandango C Am La' sotto qualcuno ridera' D G C Am Balliamo sul... mondo!!!! Non ti offro grandi cose pero' quelle li' le avrai Niente case ne' futuro ne' certezze, forse guai Ma se dall'Atlantide all'Everest non c'e' posto per noi Guido io in questo tango ci facciamo posto dai Rit. D Balliamo sul mondo!! G C Am Va bene qualsiasi musica D cadremo ballando G C Am sul mondo lo sai si scivola. D G Facciamo un fandango C Am La' sotto qualcuno fischiera' D G C Am Balliamo sul... mondo!!!! [Riff principale] [Assolo] la divisione in battute serve solo a separare le parti del solo vvvvvvvv leva tremolo vvvv e:
B:-10
G:--7
D:
A:
E:
e:
B:-8/10-8
G:
D:
A:
E:
e:
B:
G:
D:--5-5-5-7-7- finisce con
A:--5-5-5-7-7-
E:
[Nuova versione, probabilmente piu' corretta (ma non ho controllato personalmente, per cui le lascio tutte e due :) )]

-0
-7


-10b-r-10-10-8





--8

-8--/10-10-/12






-12-12-12-12-14-12---12-14-12



-15-15-15-15--15
-14-14-14-14



Tabbed by Dave-hawk davfede@tin.it Fred e Ginger sono su una supernova sopra noi Chiudi gli occhi e tieni il tempo e sara' quasi fatta dai C'e' chi vince e c'e' chi perde, noi balliamo casomai Non avremo classe ma abbiamo gambe e fiato finche' vuoi vvvv vvvv <--- leva del tremolo e:
B:---10--8
G:-7
D:
A:
E:
Ballando, ballando sul ballando sul mondo Facendo, facendo un facendo un fandango Ballando, ballando sul ballando sul mondo Ballando, ballando sul ballando sul Rit. D Balliamo sul mondo!! G C Am Va bene qualsiasi musica D cadremo ballando G C Am sul mondo lo sai si scivola. D G Facciamo un fandango C Am La' sotto qualcuno applaudira' D G C Am Balliamo sul... mondo!!!! [BASSO] Strofa: |
|--0--0--0--0--0--0--0
|
|


--3--3--3--3--3--3--3--3--|--3--0--2--0--3--0--4--0--|
Nel ritornello la penultima battuta e' sostituita: la prima volta da questa:

--3--0--0--0--0--0--0--0--|
la seconda e la quarta volta:

--0--0--0--0--0--0--0--0--|
e la terza: --2--2--2--2--2--2--2



mentre nell'intermezzo suona:

--0----0----0----0----0---|
da meta' del solo (dove la chitarra fa l'ultimo pezzo *ritmato*) in poi diventa: |
|--0--0--0--0--0--0--0
|
|



--3--3--3--3--3--3--3
--2--2--2--2--2--2--2






--3


----0--2--0--3---0--4--0---| volte e poi diventa:
|
|--0--0--0--0--0--0--0--4--|
|
|


--3--3--3--3--3--3--3--3--|--0--0--0--0--0--0--0--0--|
per quattro volte e poi ritorna sul giro normale +-+-+-+-+-+-+-+-+-+-+-+-+-+-+-+-+-+-+-+-+-+-+-+-+-+-+-+-+-+-+-+-+-
Balliamo sul mondo - Assolo- ( by Dave-hawk )

-0
-7


-10b-r-10-10-8





--8

-8--/10-10-/12






-12-12-12-12-14-12---12-14-12



-15-15-15-15--15
-14-14-14-14



Tabbed by Dave-hawk davfede@tin.it