Viento.tab

Viento by Pino Daniele

This one may sound difficult at a first listening but it is not.
Basically turns around the Dm, Am, Bb and E chords. The structure is:

INTRO
BRIDGE
VERSE
BRIDGE
VERSE

After the 2nd VERSE play the bridge without the last two bars and end with and open A (major, not minor) chord.
The chords followed by the ~ sign mean that the chord must be played arpeggio.
The distance between the notes gives an idea of the duration (---- is a quarter and -- is an 8th. For the ending of the BRIDGE is essential to listen to the record to get the exact tempo)

INTRO

|-7~ ---8----10----|--8--7--5
|-6~
|-5~
|-0~
|
|
|----1--0
|-3~
|-3~
|-3~
|-1~
|
BRIDGE after the INTRO and after each VERSE |----This takes two measures
|
|
|
|----2
|-0
|
|
|
|-1--0
|
|
|-0
|
VERSE |
|----3
|
|
|-0
|
|-Play this twice-| |
|-0~ --3----1----|
|-1~
|-2~
|
|-0~
|--Play this twice--|--Play this twice--| |
|-3--3--3--3--3--3--|-1--1--1--1--1--1--|-3~
|-3--3--3--3--3--3--|-2--2--2--2--2--2--|-2~
|-3--3--3--3--3--3--|-2--2--2--2--2--2--|-0~
|-1--1--1--1--1--1--|-0--0--0--0--0--0--|
|
|
|-3~
|-3~ --2----1----| |-3~
|-1~
|
VIENTO Viento scioscia stanotte trase pe' sotta e fatte senti' viento viento viento nce resta pe'nce 'ncazza' Viento trase dint'e piazze rump'e feneste e nun te ferma' viento viento puorteme 'e voci 'e chi vo' allucca' Daniel Mennella mennella@msoft.it Canzone: Viento Artista: Pino Daniele Album: Pino Daniele Trascrizione: Luca(riello) chumkiu@libero.it INTRO: Rem6/7/La Lam |-7--8-/10-10---8p7----5
|-6
|-5
|
|-0
|
Sib Lam Solm Fa |----1--0
|-3
|-3
|-3
|-1
|
Mi |
|
|
|
|
|
La Re |
|
|
|----2
|--0
|
Rem /4 Do#m /4 Dom /4 Sim /4 |
|-6h8-6--5h7-5--4h6-4--3h5-3---| |-5---5--4---4--3---3--2---2---| |-7
|-5
|
Lam Si Lam |
|-1h0
|
|
|-0
|
Rem/La Lam |
|
|
|
|-0
|
STROFA: Rem/La Lam |
|
|
|
|-0
|
Vie - nto Sib Lam |----1--0
|-3
|-3
|-3
|-1
Scioscia stanotte Mim La9 |
|-0---3---1
|
|
|
|-0
Trase pe sotto La7 Fa/Re |-3---1---0
|-2
|-2
|-2
|-0
|
e fatte sentì Sib |
|--3-3-3-3-3-3-3-3-3-3-3-3-3-3-| |--3-3-3-3-3-3-3-3-3-3-3-3-3-3-| |--3-3-3-3-3-3-3-3-3-3-3-3-3-3-| |-1
|
viento... Lam |
|--1-1-1-1-1-1-1-1-1-1-1-1-1-1-| |--2-2-2-2-2-2-2-2-2-2-2-2-2-2-| |--2-2-2-2-2-2-2-2-2-2-2-2-2-2-| |-0
|
viento... Sib Lam |----1--0
|-3
|-3
|-3
|-1
|
Viento nce resta pe nce 'ncazza' La Re |
|
|
|
|--0
|
Rem /4 Do#m /4 Dom /4 Sim /4 |
|-6h8-6--5h7-5--4h6-4--3h5-3---| |-5---5--4---4--3---3--2---2---| |-7
|-5
|
Lam Si Lam |
|-1p0
|
|
|-0
|
Ripete per la seconda strofa :) TESTO Viento scioscia stanotte trase pe' sotta e fatte sentì' viento viento viento nce resta pe'nce 'ncazzà' Viento trase dint'e piazze rump'e fenestre e nun te fermà' Viento viento puorteme 'e voci ' chi vo' alluccà'.