Per te.tab


From: Luca <rluc@freemail.it> Date: Fri, 03 Sep 1999 20:12:55 +0100
Per Te (Pino Daniele) Libera interpretazione |
|-7^8--8
|
|
|
|
|-2^3--3----2--2
|-4^5--5----3--3----5
|
|
|
|
|
|
|-7--6--6^7----6--7--6^7^6---4
|
|
|
|
|
|
|
|-5--7--9
|
|--3---5
|
|--4---5
|
|
|
|----5---5^7---7---7---7---8---5
|-8
|
|
|
|
|
|
|-4
|----7
|
|
|
|
|-6--7
|
|
|
|----7--7--5
|-5
|
|
|
|
|
|-3^2--3^2
|
|
|
|
|
|
|
|
|-5--7
|
|
|
|-5--7--6--4
|
|
|
|
|-7^8--8
|
|
|
|
|-2^3--3----2--2
|-4^5--5----3--3----5
|
|
|
|
|
|
|-7--6--6^7----6--7--6^7^6---4
|
|
|
|
|
|
|
|-5-7-5
|
Se qualcuno trova eresie mi puo' (e mi deve) scrivere. #
# Sensazione unica perché la musica # # ti prende anche l'anima... # Pino Daniele #
rluc@freemail.it Ciao.