Lazzari felici.tab

From: "Amedeo Milella" <a.milella@teseo.it>
Date: 05 Apr 99 13:35:18 +0100

PINO DANIELE - Lazzari Felici Originariamente per chitarra battente. Tradotto ed arrangiato per accordatura standard da: Amedeo Milella. LEGENDA ar -> armonici h -> hammer on s -> slide p -> pull off NOTE: pezzo non molto difficile anche se e' necessario l'utilizzo del pollice sulla sesta corda (MI basso) ed una buona apertura della mano sinistra. Si consiglia l'ascolto dell'originale prima di intraprendere lo studio della tablatura. INTRO |
|
|
|
|
|--12ar
|
|
|---3
|
|-3
|
|---1--1--1--0--0----0----1--1--1--3--3--5--3- |---1--1--1--1--1----1----1--1--1--1--1--3--3- |---2--2--2--3--3----3----2--2--2--3--3--3--3- x3 (ripetuto 3 volte) |
|
|-1----1
|---1--1--1----3--3--3
|---1--1--2----3--3--3
|---2--2--2----3--3--3
|
|
|-1----1
CANTO (prima e seconda strofa) |---1--1--1--0--0----0----1--1--1--3--3--5--3---1--1--1--0--0- |---1--1--1--1--1----1----1--1--1--1--1--3--3---1--1--1--1--1- |---2--2--2--3--3----3----2--2--2--3--3--3--3---2--2--2--3--3- |
|
|-1----1
|---0--0----1--1--1----3--3--3----3---3
|---1--1----1--1--1----3--3--3----3---3---3--3--3----0--0--0-- |---3--3----2--2--2----3--3--3----3---3---4--4--4----6--6--6-- |
|
|-1
|---1--1--1--0--0----0----1--1--1--3--3--5--3---1--1--1--0--0- |---1--1--1--1--1----1----1--1--1--1--1--3--3---1--1--1--1--1- |---2--2--2--3--3----3----2--2--2--3--3--3--3---2--2--2--3--3- |
|
|-1----1
|---0--0----3--3--3----3----3
|---1--1----3--3--3----3----3---3--3--3----0--0--0----1
|---3--3----3--3--3----3----3---4--4--4----6--6--6----2
|
|
|-1
|----1
|----1
|----2
|-0
|
|
|
|----3--3--3
|----3--3--3
|-1
|
|
|---1--1--1--0--0----0----1--1--1--3--3--5--3- |---1--1--1--1--1----1----1--1--1--1--1--3--3- |---2--2--2--3--3----3----2--2--2--3--3--3--3- |
|
|-1----1
|---1--1--1----3--3--3
|---1--1--2----3--3--3
|---2--2--2----3--3--3
|
|
|-1----1
(ultima strofa e coda) |---1--1--1--0--0----0----1--1--1--3--3--5--3---1--1--1--0--0- |---1--1--1--1--1----1----1--1--1--1--1--3--3---1--1--1--1--1- |---2--2--2--3--3----3----2--2--2--3--3--3--3---2--2--2--3--3- |
|
|-1----1
|---0--0----1--1--1----3--3--3----3---3
|---1--1----1--1--1----3--3--3----3---3---3--3--3----0--0--0-- |---3--3----2--2--2----3--3--3----3---3---4--4--4----6--6--6-- |
|
|-1
|----1
|----1
|----2
|-0
|
|
|
|----4
|----3
|-1
|
|
CODA |---1--1--1--0--0----0----1--1--1
|---1--1--1--1--1----1----1--1--1
|---2--2--2--3--3----3----2--2--2
|
|
|-1----1
|
|----5
|----5
|----5
|
|-5
|----1--1--1
|----1--1--1
|----2--2--2
|
|
|-1
|
|----3--3--3
|----3--3--3
|----3--3--3
|
|-3
|---1--1--1--0--0----0----1--1--1--3--3--5--3- |---1--1--1--1--1----1----1--1--1--1--1--3--3- |---2--2--2--3--3----3----2--2--2--3--3--3--3- |
|
|-1----1
|---1--1--1----3--3--3
|---1--1--2----3--3--3
|---2--2--2----3--3--3
|
|
|-1----1
Ciao alla prox! *Amedeo Milella* -- /Referente nazionale per L'Amiga Group Italia sez. Puglia/ Amiga Group Italia: http://www.amyresource.it/AGI mailto:a.milella@teseo.it